ISO-10303-21;
HEADER;
/* Generated by software containing ST-Developer
 * from STEP Tools, Inc. (www.steptools.com) 
 */
/* OPTION: using custom schema-name function */

FILE_DESCRIPTION(
/* description */ (''),
/* implementation_level */ '2;1');

FILE_NAME(
/* name */ '6017371',
/* time_stamp */ '2014-02-11T14:07:29+01:00',
/* author */ (''),
/* organization */ (''),
/* preprocessor_version */ 'ST-DEVELOPER v15',
/* originating_system */ '',
/* authorisation */ '');

FILE_SCHEMA (('CONFIG_CONTROL_DESIGN'));
ENDSEC;

DATA;
#10=SHAPE_REPRESENTATION_RELATIONSHIP('','',#252,#12);
#11=MANIFOLD_SOLID_BREP('brep_1',#13);
#12=ADVANCED_BREP_SHAPE_REPRESENTATION('brep_rep_0',(#11,#256),#251);
#13=CLOSED_SHELL('',(#14,#15,#16,#17,#18,#19,#20,#21,#22,#23));
#14=ADVANCED_FACE('',(#24),#158,.T.);
#15=ADVANCED_FACE('',(#25),#159,.T.);
#16=ADVANCED_FACE('',(#26),#160,.T.);
#17=ADVANCED_FACE('',(#27),#161,.T.);
#18=ADVANCED_FACE('',(#28),#162,.T.);
#19=ADVANCED_FACE('',(#29),#163,.T.);
#20=ADVANCED_FACE('',(#30),#164,.T.);
#21=ADVANCED_FACE('',(#31),#165,.T.);
#22=ADVANCED_FACE('',(#32),#156,.T.);
#23=ADVANCED_FACE('',(#33),#157,.T.);
#24=FACE_OUTER_BOUND('',#34,.T.);
#25=FACE_OUTER_BOUND('',#35,.T.);
#26=FACE_OUTER_BOUND('',#36,.T.);
#27=FACE_OUTER_BOUND('',#37,.T.);
#28=FACE_OUTER_BOUND('',#38,.T.);
#29=FACE_OUTER_BOUND('',#39,.T.);
#30=FACE_OUTER_BOUND('',#40,.T.);
#31=FACE_OUTER_BOUND('',#41,.T.);
#32=FACE_OUTER_BOUND('',#42,.T.);
#33=FACE_OUTER_BOUND('',#43,.T.);
#34=EDGE_LOOP('',(#44,#45,#46,#47));
#35=EDGE_LOOP('',(#48,#49,#50,#51));
#36=EDGE_LOOP('',(#52,#53,#54,#55));
#37=EDGE_LOOP('',(#56,#57,#58,#59));
#38=EDGE_LOOP('',(#60,#61,#62,#63));
#39=EDGE_LOOP('',(#64,#65,#66,#67));
#40=EDGE_LOOP('',(#68,#69,#70,#71));
#41=EDGE_LOOP('',(#72,#73,#74,#75));
#42=EDGE_LOOP('',(#76,#77,#78,#79,#80,#81,#82,#83));
#43=EDGE_LOOP('',(#84,#85,#86,#87,#88,#89,#90,#91));
#44=ORIENTED_EDGE('',*,*,#92,.T.);
#45=ORIENTED_EDGE('',*,*,#93,.T.);
#46=ORIENTED_EDGE('',*,*,#94,.F.);
#47=ORIENTED_EDGE('',*,*,#95,.F.);
#48=ORIENTED_EDGE('',*,*,#96,.T.);
#49=ORIENTED_EDGE('',*,*,#97,.T.);
#50=ORIENTED_EDGE('',*,*,#98,.F.);
#51=ORIENTED_EDGE('',*,*,#93,.F.);
#52=ORIENTED_EDGE('',*,*,#99,.T.);
#53=ORIENTED_EDGE('',*,*,#100,.T.);
#54=ORIENTED_EDGE('',*,*,#101,.F.);
#55=ORIENTED_EDGE('',*,*,#97,.F.);
#56=ORIENTED_EDGE('',*,*,#102,.T.);
#57=ORIENTED_EDGE('',*,*,#103,.T.);
#58=ORIENTED_EDGE('',*,*,#104,.F.);
#59=ORIENTED_EDGE('',*,*,#100,.F.);
#60=ORIENTED_EDGE('',*,*,#105,.T.);
#61=ORIENTED_EDGE('',*,*,#106,.T.);
#62=ORIENTED_EDGE('',*,*,#107,.F.);
#63=ORIENTED_EDGE('',*,*,#103,.F.);
#64=ORIENTED_EDGE('',*,*,#108,.T.);
#65=ORIENTED_EDGE('',*,*,#109,.T.);
#66=ORIENTED_EDGE('',*,*,#110,.F.);
#67=ORIENTED_EDGE('',*,*,#106,.F.);
#68=ORIENTED_EDGE('',*,*,#111,.T.);
#69=ORIENTED_EDGE('',*,*,#112,.T.);
#70=ORIENTED_EDGE('',*,*,#113,.F.);
#71=ORIENTED_EDGE('',*,*,#109,.F.);
#72=ORIENTED_EDGE('',*,*,#114,.T.);
#73=ORIENTED_EDGE('',*,*,#95,.T.);
#74=ORIENTED_EDGE('',*,*,#115,.F.);
#75=ORIENTED_EDGE('',*,*,#112,.F.);
#76=ORIENTED_EDGE('',*,*,#114,.F.);
#77=ORIENTED_EDGE('',*,*,#111,.F.);
#78=ORIENTED_EDGE('',*,*,#108,.F.);
#79=ORIENTED_EDGE('',*,*,#105,.F.);
#80=ORIENTED_EDGE('',*,*,#102,.F.);
#81=ORIENTED_EDGE('',*,*,#99,.F.);
#82=ORIENTED_EDGE('',*,*,#96,.F.);
#83=ORIENTED_EDGE('',*,*,#92,.F.);
#84=ORIENTED_EDGE('',*,*,#94,.T.);
#85=ORIENTED_EDGE('',*,*,#98,.T.);
#86=ORIENTED_EDGE('',*,*,#101,.T.);
#87=ORIENTED_EDGE('',*,*,#104,.T.);
#88=ORIENTED_EDGE('',*,*,#107,.T.);
#89=ORIENTED_EDGE('',*,*,#110,.T.);
#90=ORIENTED_EDGE('',*,*,#113,.T.);
#91=ORIENTED_EDGE('',*,*,#115,.T.);
#92=EDGE_CURVE('',#140,#141,#116,.T.);
#93=EDGE_CURVE('',#141,#142,#117,.T.);
#94=EDGE_CURVE('',#143,#142,#118,.T.);
#95=EDGE_CURVE('',#140,#143,#119,.T.);
#96=EDGE_CURVE('',#141,#144,#120,.T.);
#97=EDGE_CURVE('',#144,#145,#121,.T.);
#98=EDGE_CURVE('',#142,#145,#122,.T.);
#99=EDGE_CURVE('',#144,#146,#123,.T.);
#100=EDGE_CURVE('',#146,#147,#124,.T.);
#101=EDGE_CURVE('',#145,#147,#125,.T.);
#102=EDGE_CURVE('',#146,#148,#126,.T.);
#103=EDGE_CURVE('',#148,#149,#127,.T.);
#104=EDGE_CURVE('',#147,#149,#128,.T.);
#105=EDGE_CURVE('',#148,#150,#129,.T.);
#106=EDGE_CURVE('',#150,#151,#130,.T.);
#107=EDGE_CURVE('',#149,#151,#131,.T.);
#108=EDGE_CURVE('',#150,#152,#132,.T.);
#109=EDGE_CURVE('',#152,#153,#133,.T.);
#110=EDGE_CURVE('',#151,#153,#134,.T.);
#111=EDGE_CURVE('',#152,#154,#135,.T.);
#112=EDGE_CURVE('',#154,#155,#136,.T.);
#113=EDGE_CURVE('',#153,#155,#137,.T.);
#114=EDGE_CURVE('',#154,#140,#138,.T.);
#115=EDGE_CURVE('',#155,#143,#139,.T.);
#116=(
BOUNDED_CURVE()
B_SPLINE_CURVE(2,(#330,#331,#332),.UNSPECIFIED.,.F.,.F.)
B_SPLINE_CURVE_WITH_KNOTS((3,3),(-1126.47013409141,-914.000000091411),
 .UNSPECIFIED.)
CURVE()
GEOMETRIC_REPRESENTATION_ITEM()
RATIONAL_B_SPLINE_CURVE((1.,1.,1.))
REPRESENTATION_ITEM('')
);
#117=(
BOUNDED_CURVE()
B_SPLINE_CURVE(1,(#333,#334),.UNSPECIFIED.,.F.,.F.)
B_SPLINE_CURVE_WITH_KNOTS((2,2),(0.,20.),.UNSPECIFIED.)
CURVE()
GEOMETRIC_REPRESENTATION_ITEM()
RATIONAL_B_SPLINE_CURVE((1.,1.))
REPRESENTATION_ITEM('')
);
#118=(
BOUNDED_CURVE()
B_SPLINE_CURVE(2,(#335,#336,#337),.UNSPECIFIED.,.F.,.F.)
B_SPLINE_CURVE_WITH_KNOTS((3,3),(-1126.47013409141,-914.000000091411),
 .UNSPECIFIED.)
CURVE()
GEOMETRIC_REPRESENTATION_ITEM()
RATIONAL_B_SPLINE_CURVE((1.,1.,1.))
REPRESENTATION_ITEM('')
);
#119=(
BOUNDED_CURVE()
B_SPLINE_CURVE(1,(#338,#339),.UNSPECIFIED.,.F.,.F.)
B_SPLINE_CURVE_WITH_KNOTS((2,2),(0.,20.),.UNSPECIFIED.)
CURVE()
GEOMETRIC_REPRESENTATION_ITEM()
RATIONAL_B_SPLINE_CURVE((1.,1.))
REPRESENTATION_ITEM('')
);
#120=(
BOUNDED_CURVE()
B_SPLINE_CURVE(2,(#340,#341,#342),.UNSPECIFIED.,.F.,.F.)
B_SPLINE_CURVE_WITH_KNOTS((3,3),(-914.000000091411,-882.584073555513),
 .UNSPECIFIED.)
CURVE()
GEOMETRIC_REPRESENTATION_ITEM()
RATIONAL_B_SPLINE_CURVE((1.,0.707106781186548,1.))
REPRESENTATION_ITEM('')
);
#121=(
BOUNDED_CURVE()
B_SPLINE_CURVE(1,(#343,#344),.UNSPECIFIED.,.F.,.F.)
B_SPLINE_CURVE_WITH_KNOTS((2,2),(0.,20.),.UNSPECIFIED.)
CURVE()
GEOMETRIC_REPRESENTATION_ITEM()
RATIONAL_B_SPLINE_CURVE((1.,1.))
REPRESENTATION_ITEM('')
);
#122=(
BOUNDED_CURVE()
B_SPLINE_CURVE(2,(#345,#346,#347),.UNSPECIFIED.,.F.,.F.)
B_SPLINE_CURVE_WITH_KNOTS((3,3),(-914.000000091411,-882.584073555513),
 .UNSPECIFIED.)
CURVE()
GEOMETRIC_REPRESENTATION_ITEM()
RATIONAL_B_SPLINE_CURVE((1.,0.707106781186548,1.))
REPRESENTATION_ITEM('')
);
#123=(
BOUNDED_CURVE()
B_SPLINE_CURVE(2,(#348,#349,#350),.UNSPECIFIED.,.F.,.F.)
B_SPLINE_CURVE_WITH_KNOTS((3,3),(-882.584073555513,-670.113939555513),
 .UNSPECIFIED.)
CURVE()
GEOMETRIC_REPRESENTATION_ITEM()
RATIONAL_B_SPLINE_CURVE((1.,1.,1.))
REPRESENTATION_ITEM('')
);
#124=(
BOUNDED_CURVE()
B_SPLINE_CURVE(1,(#351,#352),.UNSPECIFIED.,.F.,.F.)
B_SPLINE_CURVE_WITH_KNOTS((2,2),(0.,20.),.UNSPECIFIED.)
CURVE()
GEOMETRIC_REPRESENTATION_ITEM()
RATIONAL_B_SPLINE_CURVE((1.,1.))
REPRESENTATION_ITEM('')
);
#125=(
BOUNDED_CURVE()
B_SPLINE_CURVE(2,(#353,#354,#355),.UNSPECIFIED.,.F.,.F.)
B_SPLINE_CURVE_WITH_KNOTS((3,3),(-882.584073555513,-670.113939555513),
 .UNSPECIFIED.)
CURVE()
GEOMETRIC_REPRESENTATION_ITEM()
RATIONAL_B_SPLINE_CURVE((1.,1.,1.))
REPRESENTATION_ITEM('')
);
#126=(
BOUNDED_CURVE()
B_SPLINE_CURVE(2,(#356,#357,#358),.UNSPECIFIED.,.F.,.F.)
B_SPLINE_CURVE_WITH_KNOTS((3,3),(-670.113939555513,-667.113939555513),
 .UNSPECIFIED.)
CURVE()
GEOMETRIC_REPRESENTATION_ITEM()
RATIONAL_B_SPLINE_CURVE((1.,1.,1.))
REPRESENTATION_ITEM('')
);
#127=(
BOUNDED_CURVE()
B_SPLINE_CURVE(1,(#359,#360),.UNSPECIFIED.,.F.,.F.)
B_SPLINE_CURVE_WITH_KNOTS((2,2),(0.,20.),.UNSPECIFIED.)
CURVE()
GEOMETRIC_REPRESENTATION_ITEM()
RATIONAL_B_SPLINE_CURVE((1.,1.))
REPRESENTATION_ITEM('')
);
#128=(
BOUNDED_CURVE()
B_SPLINE_CURVE(2,(#361,#362,#363),.UNSPECIFIED.,.F.,.F.)
B_SPLINE_CURVE_WITH_KNOTS((3,3),(-670.113939555513,-667.113939555513),
 .UNSPECIFIED.)
CURVE()
GEOMETRIC_REPRESENTATION_ITEM()
RATIONAL_B_SPLINE_CURVE((1.,1.,1.))
REPRESENTATION_ITEM('')
);
#129=(
BOUNDED_CURVE()
B_SPLINE_CURVE(2,(#364,#365,#366),.UNSPECIFIED.,.F.,.F.)
B_SPLINE_CURVE_WITH_KNOTS((3,3),(-667.113939555513,-454.643805555513),
 .UNSPECIFIED.)
CURVE()
GEOMETRIC_REPRESENTATION_ITEM()
RATIONAL_B_SPLINE_CURVE((1.,1.,1.))
REPRESENTATION_ITEM('')
);
#130=(
BOUNDED_CURVE()
B_SPLINE_CURVE(1,(#367,#368),.UNSPECIFIED.,.F.,.F.)
B_SPLINE_CURVE_WITH_KNOTS((2,2),(0.,20.),.UNSPECIFIED.)
CURVE()
GEOMETRIC_REPRESENTATION_ITEM()
RATIONAL_B_SPLINE_CURVE((1.,1.))
REPRESENTATION_ITEM('')
);
#131=(
BOUNDED_CURVE()
B_SPLINE_CURVE(2,(#369,#370,#371),.UNSPECIFIED.,.F.,.F.)
B_SPLINE_CURVE_WITH_KNOTS((3,3),(-667.113939555513,-454.643805555513),
 .UNSPECIFIED.)
CURVE()
GEOMETRIC_REPRESENTATION_ITEM()
RATIONAL_B_SPLINE_CURVE((1.,1.,1.))
REPRESENTATION_ITEM('')
);
#132=(
BOUNDED_CURVE()
B_SPLINE_CURVE(2,(#372,#373,#374),.UNSPECIFIED.,.F.,.F.)
B_SPLINE_CURVE_WITH_KNOTS((3,3),(-454.643805555513,-427.940268),
 .UNSPECIFIED.)
CURVE()
GEOMETRIC_REPRESENTATION_ITEM()
RATIONAL_B_SPLINE_CURVE((1.,0.707106781186548,1.))
REPRESENTATION_ITEM('')
);
#133=(
BOUNDED_CURVE()
B_SPLINE_CURVE(1,(#375,#376),.UNSPECIFIED.,.F.,.F.)
B_SPLINE_CURVE_WITH_KNOTS((2,2),(0.,20.),.UNSPECIFIED.)
CURVE()
GEOMETRIC_REPRESENTATION_ITEM()
RATIONAL_B_SPLINE_CURVE((1.,1.))
REPRESENTATION_ITEM('')
);
#134=(
BOUNDED_CURVE()
B_SPLINE_CURVE(2,(#377,#378,#379),.UNSPECIFIED.,.F.,.F.)
B_SPLINE_CURVE_WITH_KNOTS((3,3),(-454.643805555513,-427.940268),
 .UNSPECIFIED.)
CURVE()
GEOMETRIC_REPRESENTATION_ITEM()
RATIONAL_B_SPLINE_CURVE((1.,0.707106781186548,1.))
REPRESENTATION_ITEM('')
);
#135=(
BOUNDED_CURVE()
B_SPLINE_CURVE(2,(#380,#381,#382),.UNSPECIFIED.,.F.,.F.)
B_SPLINE_CURVE_WITH_KNOTS((3,3),(-427.940268,-215.470134),.UNSPECIFIED.)
CURVE()
GEOMETRIC_REPRESENTATION_ITEM()
RATIONAL_B_SPLINE_CURVE((1.,1.,1.))
REPRESENTATION_ITEM('')
);
#136=(
BOUNDED_CURVE()
B_SPLINE_CURVE(1,(#383,#384),.UNSPECIFIED.,.F.,.F.)
B_SPLINE_CURVE_WITH_KNOTS((2,2),(0.,20.),.UNSPECIFIED.)
CURVE()
GEOMETRIC_REPRESENTATION_ITEM()
RATIONAL_B_SPLINE_CURVE((1.,1.))
REPRESENTATION_ITEM('')
);
#137=(
BOUNDED_CURVE()
B_SPLINE_CURVE(2,(#385,#386,#387),.UNSPECIFIED.,.F.,.F.)
B_SPLINE_CURVE_WITH_KNOTS((3,3),(-427.940268,-215.470134),.UNSPECIFIED.)
CURVE()
GEOMETRIC_REPRESENTATION_ITEM()
RATIONAL_B_SPLINE_CURVE((1.,1.,1.))
REPRESENTATION_ITEM('')
);
#138=(
BOUNDED_CURVE()
B_SPLINE_CURVE(2,(#388,#389,#390),.UNSPECIFIED.,.F.,.F.)
B_SPLINE_CURVE_WITH_KNOTS((3,3),(-215.470134,-212.470134),.UNSPECIFIED.)
CURVE()
GEOMETRIC_REPRESENTATION_ITEM()
RATIONAL_B_SPLINE_CURVE((1.,1.,1.))
REPRESENTATION_ITEM('')
);
#139=(
BOUNDED_CURVE()
B_SPLINE_CURVE(2,(#391,#392,#393),.UNSPECIFIED.,.F.,.F.)
B_SPLINE_CURVE_WITH_KNOTS((3,3),(-215.470134,-212.470134),.UNSPECIFIED.)
CURVE()
GEOMETRIC_REPRESENTATION_ITEM()
RATIONAL_B_SPLINE_CURVE((1.,1.,1.))
REPRESENTATION_ITEM('')
);
#140=VERTEX_POINT('',#314);
#141=VERTEX_POINT('',#315);
#142=VERTEX_POINT('',#316);
#143=VERTEX_POINT('',#317);
#144=VERTEX_POINT('',#318);
#145=VERTEX_POINT('',#319);
#146=VERTEX_POINT('',#320);
#147=VERTEX_POINT('',#321);
#148=VERTEX_POINT('',#322);
#149=VERTEX_POINT('',#323);
#150=VERTEX_POINT('',#324);
#151=VERTEX_POINT('',#325);
#152=VERTEX_POINT('',#326);
#153=VERTEX_POINT('',#327);
#154=VERTEX_POINT('',#328);
#155=VERTEX_POINT('',#329);
#156=PLANE('',#254);
#157=PLANE('',#255);
#158=(
BOUNDED_SURFACE()
B_SPLINE_SURFACE(2,1,((#264,#265),(#266,#267),(#268,#269)),
 .UNSPECIFIED.,.F.,.F.,.F.)
B_SPLINE_SURFACE_WITH_KNOTS((3,3),(2,2),(-1126.47013409141,-914.000000091411),
(0.,20.),.UNSPECIFIED.)
GEOMETRIC_REPRESENTATION_ITEM()
RATIONAL_B_SPLINE_SURFACE(((1.,1.),(1.,1.),(1.,1.)))
REPRESENTATION_ITEM('')
SURFACE()
);
#159=(
BOUNDED_SURFACE()
B_SPLINE_SURFACE(2,1,((#270,#271),(#272,#273),(#274,#275)),
 .UNSPECIFIED.,.F.,.F.,.F.)
B_SPLINE_SURFACE_WITH_KNOTS((3,3),(2,2),(-914.000000091411,-882.584073555513),
(0.,20.),.UNSPECIFIED.)
GEOMETRIC_REPRESENTATION_ITEM()
RATIONAL_B_SPLINE_SURFACE(((1.,1.),(0.707106781186548,0.707106781186548),
(1.,1.)))
REPRESENTATION_ITEM('')
SURFACE()
);
#160=(
BOUNDED_SURFACE()
B_SPLINE_SURFACE(2,1,((#276,#277),(#278,#279),(#280,#281)),
 .UNSPECIFIED.,.F.,.F.,.F.)
B_SPLINE_SURFACE_WITH_KNOTS((3,3),(2,2),(-882.584073555513,-670.113939555513),
(0.,20.),.UNSPECIFIED.)
GEOMETRIC_REPRESENTATION_ITEM()
RATIONAL_B_SPLINE_SURFACE(((1.,1.),(1.,1.),(1.,1.)))
REPRESENTATION_ITEM('')
SURFACE()
);
#161=(
BOUNDED_SURFACE()
B_SPLINE_SURFACE(2,1,((#282,#283),(#284,#285),(#286,#287)),
 .UNSPECIFIED.,.F.,.F.,.F.)
B_SPLINE_SURFACE_WITH_KNOTS((3,3),(2,2),(-670.113939555513,-667.113939555513),
(0.,20.),.UNSPECIFIED.)
GEOMETRIC_REPRESENTATION_ITEM()
RATIONAL_B_SPLINE_SURFACE(((1.,1.),(1.,1.),(1.,1.)))
REPRESENTATION_ITEM('')
SURFACE()
);
#162=(
BOUNDED_SURFACE()
B_SPLINE_SURFACE(2,1,((#288,#289),(#290,#291),(#292,#293)),
 .UNSPECIFIED.,.F.,.F.,.F.)
B_SPLINE_SURFACE_WITH_KNOTS((3,3),(2,2),(-667.113939555513,-454.643805555513),
(0.,20.),.UNSPECIFIED.)
GEOMETRIC_REPRESENTATION_ITEM()
RATIONAL_B_SPLINE_SURFACE(((1.,1.),(1.,1.),(1.,1.)))
REPRESENTATION_ITEM('')
SURFACE()
);
#163=(
BOUNDED_SURFACE()
B_SPLINE_SURFACE(2,1,((#294,#295),(#296,#297),(#298,#299)),
 .UNSPECIFIED.,.F.,.F.,.F.)
B_SPLINE_SURFACE_WITH_KNOTS((3,3),(2,2),(-454.643805555513,-427.940268),
(0.,20.),.UNSPECIFIED.)
GEOMETRIC_REPRESENTATION_ITEM()
RATIONAL_B_SPLINE_SURFACE(((1.,1.),(0.707106781186548,0.707106781186548),
(1.,1.)))
REPRESENTATION_ITEM('')
SURFACE()
);
#164=(
BOUNDED_SURFACE()
B_SPLINE_SURFACE(2,1,((#300,#301),(#302,#303),(#304,#305)),
 .UNSPECIFIED.,.F.,.F.,.F.)
B_SPLINE_SURFACE_WITH_KNOTS((3,3),(2,2),(-427.940268,-215.470134),(0.,20.),
 .UNSPECIFIED.)
GEOMETRIC_REPRESENTATION_ITEM()
RATIONAL_B_SPLINE_SURFACE(((1.,1.),(1.,1.),(1.,1.)))
REPRESENTATION_ITEM('')
SURFACE()
);
#165=(
BOUNDED_SURFACE()
B_SPLINE_SURFACE(2,1,((#306,#307),(#308,#309),(#310,#311)),
 .UNSPECIFIED.,.F.,.F.,.F.)
B_SPLINE_SURFACE_WITH_KNOTS((3,3),(2,2),(-215.470134,-212.470134),(0.,20.),
 .UNSPECIFIED.)
GEOMETRIC_REPRESENTATION_ITEM()
RATIONAL_B_SPLINE_SURFACE(((1.,1.),(1.,1.),(1.,1.)))
REPRESENTATION_ITEM('')
SURFACE()
);
#166=SHAPE_DEFINITION_REPRESENTATION(#167,#252);
#167=PRODUCT_DEFINITION_SHAPE('Document','',#169);
#168=PRODUCT_DEFINITION_CONTEXT('3D Mechanical Parts',#241,'design');
#169=PRODUCT_DEFINITION('A','First version',#211,#168);
#170=DATE_TIME_ROLE('classification_date');
#171=DATE_TIME_ROLE('creation_date');
#172=APPLIED_DATE_AND_TIME_ASSIGNMENT(#196,#170,(#175));
#173=APPLIED_DATE_AND_TIME_ASSIGNMENT(#198,#171,(#169));
#174=SECURITY_CLASSIFICATION_LEVEL('unclassified');
#175=SECURITY_CLASSIFICATION('A','Security for version',#174);
#176=APPLIED_SECURITY_CLASSIFICATION_ASSIGNMENT(#175,(#211));
#177=APPROVAL_ROLE('Version approval');
#178=APPROVAL_ROLE('Version Security approval');
#179=APPROVAL_ROLE('Definition approval');
#180=APPROVAL_PERSON_ORGANIZATION(#229,#205,#177);
#181=APPROVAL_PERSON_ORGANIZATION(#230,#206,#178);
#182=APPROVAL_PERSON_ORGANIZATION(#233,#207,#179);
#183=COORDINATED_UNIVERSAL_TIME_OFFSET(5,0,.BEHIND.);
#184=LOCAL_TIME(0,0,0.,#183);
#185=LOCAL_TIME(0,0,0.,#183);
#186=LOCAL_TIME(0,0,0.,#183);
#187=LOCAL_TIME(0,0,0.,#183);
#188=LOCAL_TIME(0,0,0.,#183);
#189=CALENDAR_DATE(1999,1,1);
#190=CALENDAR_DATE(1999,1,1);
#191=CALENDAR_DATE(1999,1,1);
#192=CALENDAR_DATE(1999,1,1);
#193=CALENDAR_DATE(1999,1,1);
#194=DATE_AND_TIME(#189,#184);
#195=DATE_AND_TIME(#190,#185);
#196=DATE_AND_TIME(#191,#186);
#197=DATE_AND_TIME(#192,#187);
#198=DATE_AND_TIME(#193,#188);
#199=APPROVAL_DATE_TIME(#194,#205);
#200=APPROVAL_DATE_TIME(#195,#206);
#201=APPROVAL_DATE_TIME(#197,#207);
#202=APPROVAL_STATUS('not_yet_approved');
#203=APPROVAL_STATUS('not_yet_approved');
#204=APPROVAL_STATUS('approved');
#205=APPROVAL(#202,'Version approval');
#206=APPROVAL(#203,'Version Security approval');
#207=APPROVAL(#204,'Definition approval');
#208=APPLIED_APPROVAL_ASSIGNMENT(#205,(#211));
#209=APPLIED_APPROVAL_ASSIGNMENT(#206,(#175));
#210=APPLIED_APPROVAL_ASSIGNMENT(#207,(#169));
#211=PRODUCT_DEFINITION_FORMATION_WITH_SPECIFIED_SOURCE('A',
'First version',#243,.MADE.);
#212=PERSON_AND_ORGANIZATION_ROLE('design_owner');
#213=PERSON_AND_ORGANIZATION_ROLE('creator');
#214=PERSON_AND_ORGANIZATION_ROLE('design_supplier');
#215=PERSON_AND_ORGANIZATION_ROLE('classification_officer');
#216=PERSON_AND_ORGANIZATION_ROLE('creator');
#217=ORGANIZATION('STI','lab','lab');
#218=ORGANIZATION('STI','unknown','unknown');
#219=ORGANIZATION('STI','unknown','unknown');
#220=ORGANIZATION('STI','unknown','unknown');
#221=ORGANIZATION('STI','unknown','unknown');
#222=ORGANIZATION('STI','unknown','unknown');
#223=ORGANIZATION('STI','unknown','unknown');
#224=PERSON('1','Box','vc60',$,$,$);
#225=PERSON('2','last','first',$,$,$);
#226=PERSON('3','President','Mr.',$,$,$);
#227=PERSON_AND_ORGANIZATION(#224,#217);
#228=PERSON_AND_ORGANIZATION(#225,#218);
#229=PERSON_AND_ORGANIZATION(#226,#219);
#230=PERSON_AND_ORGANIZATION(#226,#220);
#231=PERSON_AND_ORGANIZATION(#226,#221);
#232=PERSON_AND_ORGANIZATION(#225,#222);
#233=PERSON_AND_ORGANIZATION(#226,#223);
#234=APPLIED_PERSON_AND_ORGANIZATION_ASSIGNMENT(#227,#212,(#243));
#235=APPLIED_PERSON_AND_ORGANIZATION_ASSIGNMENT(#228,#213,(#211));
#236=APPLIED_PERSON_AND_ORGANIZATION_ASSIGNMENT(#228,#214,(#211));
#237=APPLIED_PERSON_AND_ORGANIZATION_ASSIGNMENT(#231,#215,(#175));
#238=APPLIED_PERSON_AND_ORGANIZATION_ASSIGNMENT(#232,#216,(#169));
#239=PRODUCT_RELATED_PRODUCT_CATEGORY('detail','detail',(#243));
#240=APPLICATION_PROTOCOL_DEFINITION('International Standard',
'config_control_design',1994,#241);
#241=APPLICATION_CONTEXT(
'configuration controlled 3d designs of mechanical parts and assemblie
s');
#242=PRODUCT_CONTEXT('3D Mechanical Parts',#241,'mechanical');
#243=PRODUCT('Document','Document','Rhino converted to STEP',(#242));
#244=(
LENGTH_UNIT()
NAMED_UNIT(*)
SI_UNIT(.MILLI.,.METRE.)
);
#245=(
NAMED_UNIT(*)
PLANE_ANGLE_UNIT()
SI_UNIT($,.RADIAN.)
);
#246=DIMENSIONAL_EXPONENTS(0.,0.,0.,0.,0.,0.,0.);
#247=PLANE_ANGLE_MEASURE_WITH_UNIT(PLANE_ANGLE_MEASURE(0.01745329252),#245);
#248=(
CONVERSION_BASED_UNIT('DEGREES',#247)
NAMED_UNIT(#246)
PLANE_ANGLE_UNIT()
);
#249=(
NAMED_UNIT(*)
SI_UNIT($,.STERADIAN.)
SOLID_ANGLE_UNIT()
);
#250=UNCERTAINTY_MEASURE_WITH_UNIT(LENGTH_MEASURE(0.001),#244,
'DISTANCE_ACCURACY_VALUE',
'Maximum model space distance between geometric entities at asserted c
onnectivities');
#251=(
GEOMETRIC_REPRESENTATION_CONTEXT(3)
GLOBAL_UNCERTAINTY_ASSIGNED_CONTEXT((#250))
GLOBAL_UNIT_ASSIGNED_CONTEXT((#249,#248,#244))
REPRESENTATION_CONTEXT('ID1','3D')
);
#252=SHAPE_REPRESENTATION('Document',(#253,#256),#251);
#253=AXIS2_PLACEMENT_3D('',#263,#257,#258);
#254=AXIS2_PLACEMENT_3D('',#312,#259,$);
#255=AXIS2_PLACEMENT_3D('',#313,#260,$);
#256=AXIS2_PLACEMENT_3D('',#394,#261,#262);
#257=DIRECTION('',(0.,0.,1.));
#258=DIRECTION('',(1.,0.,0.));
#259=DIRECTION('',(0.,0.,-1.));
#260=DIRECTION('',(0.,0.,1.));
#261=DIRECTION('',(0.,0.,1.));
#262=DIRECTION('',(1.,0.,0.));
#263=CARTESIAN_POINT('',(0.,0.,0.));
#264=CARTESIAN_POINT('',(-3.5527136788005E-15,232.470134,0.));
#265=CARTESIAN_POINT('',(-3.5527136788005E-15,232.470134,20.));
#266=CARTESIAN_POINT('',(-3.5527136788005E-15,126.235067,0.));
#267=CARTESIAN_POINT('',(-3.5527136788005E-15,126.235067,20.));
#268=CARTESIAN_POINT('',(0.,20.,0.));
#269=CARTESIAN_POINT('',(0.,20.,20.));
#270=CARTESIAN_POINT('',(0.,20.,0.));
#271=CARTESIAN_POINT('',(0.,20.,20.));
#272=CARTESIAN_POINT('',(1.47158218898758E-15,-1.20583100826914E-13,0.));
#273=CARTESIAN_POINT('',(1.47158218898758E-15,-1.20583100826914E-13,20.));
#274=CARTESIAN_POINT('',(20.0000000000001,0.,0.));
#275=CARTESIAN_POINT('',(20.0000000000001,0.,20.));
#276=CARTESIAN_POINT('',(20.0000000000001,0.,0.));
#277=CARTESIAN_POINT('',(20.0000000000001,0.,20.));
#278=CARTESIAN_POINT('',(126.235067,0.,0.));
#279=CARTESIAN_POINT('',(126.235067,0.,20.));
#280=CARTESIAN_POINT('',(232.470134,0.,0.));
#281=CARTESIAN_POINT('',(232.470134,0.,20.));
#282=CARTESIAN_POINT('',(232.470134,0.,0.));
#283=CARTESIAN_POINT('',(232.470134,0.,20.));
#284=CARTESIAN_POINT('',(232.470134,1.5,0.));
#285=CARTESIAN_POINT('',(232.470134,1.5,20.));
#286=CARTESIAN_POINT('',(232.470134,3.,0.));
#287=CARTESIAN_POINT('',(232.470134,3.,20.));
#288=CARTESIAN_POINT('',(232.470134,3.,0.));
#289=CARTESIAN_POINT('',(232.470134,3.,20.));
#290=CARTESIAN_POINT('',(126.235067,3.,0.));
#291=CARTESIAN_POINT('',(126.235067,3.,20.));
#292=CARTESIAN_POINT('',(20.0000000000001,3.,0.));
#293=CARTESIAN_POINT('',(20.0000000000001,3.,20.));
#294=CARTESIAN_POINT('',(20.0000000000001,3.,0.));
#295=CARTESIAN_POINT('',(20.0000000000001,3.,20.));
#296=CARTESIAN_POINT('',(3.00000000000011,2.99999999999998,0.));
#297=CARTESIAN_POINT('',(3.00000000000011,2.99999999999998,20.));
#298=CARTESIAN_POINT('',(3.00000000000011,20.,0.));
#299=CARTESIAN_POINT('',(3.00000000000011,20.,20.));
#300=CARTESIAN_POINT('',(3.00000000000011,20.,0.));
#301=CARTESIAN_POINT('',(3.00000000000011,20.,20.));
#302=CARTESIAN_POINT('',(3.00000000000005,126.235067,0.));
#303=CARTESIAN_POINT('',(3.00000000000005,126.235067,20.));
#304=CARTESIAN_POINT('',(3.,232.470134,0.));
#305=CARTESIAN_POINT('',(3.,232.470134,20.));
#306=CARTESIAN_POINT('',(3.,232.470134,0.));
#307=CARTESIAN_POINT('',(3.,232.470134,20.));
#308=CARTESIAN_POINT('',(1.5,232.470134,0.));
#309=CARTESIAN_POINT('',(1.5,232.470134,20.));
#310=CARTESIAN_POINT('',(-3.5527136788005E-15,232.470134,0.));
#311=CARTESIAN_POINT('',(-3.5527136788005E-15,232.470134,20.));
#312=CARTESIAN_POINT('',(261.52890075,-29.05876675,0.));
#313=CARTESIAN_POINT('',(261.52890075,-29.05876675,20.));
#314=CARTESIAN_POINT('',(-3.5527136788005E-15,232.470134,0.));
#315=CARTESIAN_POINT('',(0.,20.,0.));
#316=CARTESIAN_POINT('',(0.,20.,20.));
#317=CARTESIAN_POINT('',(-3.5527136788005E-15,232.470134,20.));
#318=CARTESIAN_POINT('',(20.0000000000001,0.,0.));
#319=CARTESIAN_POINT('',(20.0000000000001,0.,20.));
#320=CARTESIAN_POINT('',(232.470134,0.,0.));
#321=CARTESIAN_POINT('',(232.470134,0.,20.));
#322=CARTESIAN_POINT('',(232.470134,3.,0.));
#323=CARTESIAN_POINT('',(232.470134,3.,20.));
#324=CARTESIAN_POINT('',(20.0000000000001,3.,0.));
#325=CARTESIAN_POINT('',(20.0000000000001,3.,20.));
#326=CARTESIAN_POINT('',(3.00000000000011,20.,0.));
#327=CARTESIAN_POINT('',(3.00000000000011,20.,20.));
#328=CARTESIAN_POINT('',(3.,232.470134,0.));
#329=CARTESIAN_POINT('',(3.,232.470134,20.));
#330=CARTESIAN_POINT('',(-3.5527136788005E-15,232.470134,0.));
#331=CARTESIAN_POINT('',(-3.5527136788005E-15,126.235067,0.));
#332=CARTESIAN_POINT('',(0.,20.,0.));
#333=CARTESIAN_POINT('',(0.,20.,0.));
#334=CARTESIAN_POINT('',(0.,20.,20.));
#335=CARTESIAN_POINT('',(-3.5527136788005E-15,232.470134,20.));
#336=CARTESIAN_POINT('',(-3.5527136788005E-15,126.235067,20.));
#337=CARTESIAN_POINT('',(0.,20.,20.));
#338=CARTESIAN_POINT('',(-3.5527136788005E-15,232.470134,0.));
#339=CARTESIAN_POINT('',(-3.5527136788005E-15,232.470134,20.));
#340=CARTESIAN_POINT('',(0.,20.,0.));
#341=CARTESIAN_POINT('',(1.47158218898758E-15,-1.20583100826914E-13,0.));
#342=CARTESIAN_POINT('',(20.0000000000001,0.,0.));
#343=CARTESIAN_POINT('',(20.0000000000001,0.,0.));
#344=CARTESIAN_POINT('',(20.0000000000001,0.,20.));
#345=CARTESIAN_POINT('',(0.,20.,20.));
#346=CARTESIAN_POINT('',(1.47158218898758E-15,-1.20583100826914E-13,20.));
#347=CARTESIAN_POINT('',(20.0000000000001,0.,20.));
#348=CARTESIAN_POINT('',(20.0000000000001,0.,0.));
#349=CARTESIAN_POINT('',(126.235067,0.,0.));
#350=CARTESIAN_POINT('',(232.470134,0.,0.));
#351=CARTESIAN_POINT('',(232.470134,0.,0.));
#352=CARTESIAN_POINT('',(232.470134,0.,20.));
#353=CARTESIAN_POINT('',(20.0000000000001,0.,20.));
#354=CARTESIAN_POINT('',(126.235067,0.,20.));
#355=CARTESIAN_POINT('',(232.470134,0.,20.));
#356=CARTESIAN_POINT('',(232.470134,0.,0.));
#357=CARTESIAN_POINT('',(232.470134,1.5,0.));
#358=CARTESIAN_POINT('',(232.470134,3.,0.));
#359=CARTESIAN_POINT('',(232.470134,3.,0.));
#360=CARTESIAN_POINT('',(232.470134,3.,20.));
#361=CARTESIAN_POINT('',(232.470134,0.,20.));
#362=CARTESIAN_POINT('',(232.470134,1.5,20.));
#363=CARTESIAN_POINT('',(232.470134,3.,20.));
#364=CARTESIAN_POINT('',(232.470134,3.,0.));
#365=CARTESIAN_POINT('',(126.235067,3.,0.));
#366=CARTESIAN_POINT('',(20.0000000000001,3.,0.));
#367=CARTESIAN_POINT('',(20.0000000000001,3.,0.));
#368=CARTESIAN_POINT('',(20.0000000000001,3.,20.));
#369=CARTESIAN_POINT('',(232.470134,3.,20.));
#370=CARTESIAN_POINT('',(126.235067,3.,20.));
#371=CARTESIAN_POINT('',(20.0000000000001,3.,20.));
#372=CARTESIAN_POINT('',(20.0000000000001,3.,0.));
#373=CARTESIAN_POINT('',(3.00000000000011,2.99999999999998,0.));
#374=CARTESIAN_POINT('',(3.00000000000011,20.,0.));
#375=CARTESIAN_POINT('',(3.00000000000011,20.,0.));
#376=CARTESIAN_POINT('',(3.00000000000011,20.,20.));
#377=CARTESIAN_POINT('',(20.0000000000001,3.,20.));
#378=CARTESIAN_POINT('',(3.00000000000011,2.99999999999998,20.));
#379=CARTESIAN_POINT('',(3.00000000000011,20.,20.));
#380=CARTESIAN_POINT('',(3.00000000000011,20.,0.));
#381=CARTESIAN_POINT('',(3.00000000000005,126.235067,0.));
#382=CARTESIAN_POINT('',(3.,232.470134,0.));
#383=CARTESIAN_POINT('',(3.,232.470134,0.));
#384=CARTESIAN_POINT('',(3.,232.470134,20.));
#385=CARTESIAN_POINT('',(3.00000000000011,20.,20.));
#386=CARTESIAN_POINT('',(3.00000000000005,126.235067,20.));
#387=CARTESIAN_POINT('',(3.,232.470134,20.));
#388=CARTESIAN_POINT('',(3.,232.470134,0.));
#389=CARTESIAN_POINT('',(1.5,232.470134,0.));
#390=CARTESIAN_POINT('',(-3.5527136788005E-15,232.470134,0.));
#391=CARTESIAN_POINT('',(3.,232.470134,20.));
#392=CARTESIAN_POINT('',(1.5,232.470134,20.));
#393=CARTESIAN_POINT('',(-3.5527136788005E-15,232.470134,20.));
#394=CARTESIAN_POINT('',(0.,0.,0.));
ENDSEC;
END-ISO-10303-21;
