ISO-10303-21;
HEADER;
FILE_DESCRIPTION (( 'STEP AP214' ),
    '1' );
FILE_NAME ('2046813.stp',
    '2023-09-08T12:25:32',
    ( '' ),
    ( '' ),
    'SwSTEP 2.0',
    'SolidWorks 2022',
    '' );
FILE_SCHEMA (( 'AUTOMOTIVE_DESIGN' ));
ENDSEC;

DATA;
#1 = EDGE_LOOP ( 'NONE', ( #128 ) ) ;
#2 = AXIS2_PLACEMENT_3D ( 'NONE', #4, #127, #327 ) ;
#3 = EDGE_LOOP ( 'NONE', ( #276 ) ) ;
#4 = CARTESIAN_POINT ( 'NONE',  ( 69.58578643762692195, 200.0000000000000000, 0.000000000000000000 ) ) ;
#5 = CIRCLE ( 'NONE', #221, 25.49999999999996803 ) ;
#6 = ORIENTED_EDGE ( 'NONE', *, *, #351, .F. ) ;
#7 = EDGE_LOOP ( 'NONE', ( #215 ) ) ;
#8 = DIRECTION ( 'NONE',  ( -0.000000000000000000, -0.000000000000000000, -1.000000000000000000 ) ) ;
#9 = EDGE_LOOP ( 'NONE', ( #67 ) ) ;
#10 = ADVANCED_FACE ( 'NONE', ( #96, #94 ), #124, .T. ) ;
#11 = FACE_OUTER_BOUND ( 'NONE', #297, .T. ) ;
#12 = CARTESIAN_POINT ( 'NONE',  ( 130.9999999999999716, 200.0000000000000000, 26.99999999999996803 ) ) ;
#13 = CARTESIAN_POINT ( 'NONE',  ( 0.000000000000000000, 200.0000000000000000, 0.000000000000000000 ) ) ;
#14 = DIRECTION ( 'NONE',  ( 1.143529715363911237E-14, -1.000000000000000000, 0.000000000000000000 ) ) ;
#15 = AXIS2_PLACEMENT_3D ( 'NONE', #175, #251, #308 ) ;
#16 = CIRCLE ( 'NONE', #35, 26.99999999999993960 ) ;
#17 = ADVANCED_FACE ( 'NONE', ( #93, #301 ), #211, .F. ) ;
#18 = DIRECTION ( 'NONE',  ( 0.000000000000000000, 0.000000000000000000, 1.000000000000000000 ) ) ;
#19 = VERTEX_POINT ( 'NONE', #140 ) ;
#20 = FILL_AREA_STYLE ('',( #371 ) ) ;
#21 = DIRECTION ( 'NONE',  ( -1.000000000000000000, -0.000000000000000000, -0.000000000000000000 ) ) ;
#22 =( NAMED_UNIT ( * ) PLANE_ANGLE_UNIT ( ) SI_UNIT ( $, .RADIAN. ) );
#23 = FACE_OUTER_BOUND ( 'NONE', #98, .T. ) ;
#24 =( NAMED_UNIT ( * ) SI_UNIT ( $, .STERADIAN. ) SOLID_ANGLE_UNIT ( ) );
#25 = CARTESIAN_POINT ( 'NONE',  ( -199.9999999999991758, -73.23606797750207420, 0.000000000000000000 ) ) ;
#26 = ORIENTED_EDGE ( 'NONE', *, *, #373, .F. ) ;
#27 = AXIS2_PLACEMENT_3D ( 'NONE', #197, #102, #364 ) ;
#28 = PRESENTATION_LAYER_ASSIGNMENT (  '', '', ( #271 ) ) ;
#29 = PRODUCT_DEFINITION ( 'UNKNOWN', '', #103, #79 ) ;
#30 = ORIENTED_EDGE ( 'NONE', *, *, #265, .F. ) ;
#31 = AXIS2_PLACEMENT_3D ( 'NONE', #214, #355, #97 ) ;
#32 = ORIENTED_EDGE ( 'NONE', *, *, #42, .T. ) ;
#33 = ORIENTED_EDGE ( 'NONE', *, *, #42, .F. ) ;
#34 = CARTESIAN_POINT ( 'NONE',  ( 0.000000000000000000, 0.000000000000000000, 0.000000000000000000 ) ) ;
#35 = AXIS2_PLACEMENT_3D ( 'NONE', #132, #48, #333 ) ;
#36 = ADVANCED_FACE ( 'NONE', ( #191, #69 ), #370, .T. ) ;
#37 = ORIENTED_EDGE ( 'NONE', *, *, #223, .T. ) ;
#38 = FACE_OUTER_BOUND ( 'NONE', #192, .T. ) ;
#39 = EDGE_LOOP ( 'NONE', ( #210 ) ) ;
#40 = ORIENTED_EDGE ( 'NONE', *, *, #71, .T. ) ;
#41 = DIRECTION ( 'NONE',  ( -1.000000000000000000, 0.000000000000000000, 0.000000000000000000 ) ) ;
#42 = EDGE_CURVE ( 'NONE', #77, #77, #294, .T. ) ;
#43 = DIRECTION ( 'NONE',  ( 1.143529715363911237E-14, -1.000000000000000000, -0.000000000000000000 ) ) ;
#44 = CIRCLE ( 'NONE', #295, 26.99999999999996803 ) ;
#45 = COLOUR_RGB ( '',0.7921568627450980005, 0.8196078431372548767, 0.9333333333333333481 ) ;
#46 = FACE_OUTER_BOUND ( 'NONE', #120, .T. ) ;
#47 = CARTESIAN_POINT ( 'NONE',  ( 69.58578643762692195, 200.0000000000000000, 26.99999999999993960 ) ) ;
#48 = DIRECTION ( 'NONE',  ( 1.143529715363911237E-14, -1.000000000000000000, 0.000000000000000000 ) ) ;
#49 = CARTESIAN_POINT ( 'NONE',  ( -199.9999999999985221, -131.0000000000022737, 26.99999999999996803 ) ) ;
#50 = CARTESIAN_POINT ( 'NONE',  ( 0.000000000000000000, 0.000000000000000000, 0.000000000000000000 ) ) ;
#51 = VERTEX_POINT ( 'NONE', #366 ) ;
#52 = DIRECTION ( 'NONE',  ( 0.000000000000000000, 0.000000000000000000, 1.000000000000000000 ) ) ;
#53 = FACE_OUTER_BOUND ( 'NONE', #356, .T. ) ;
#54 = VERTEX_POINT ( 'NONE', #137 ) ;
#55 = CARTESIAN_POINT ( 'NONE',  ( 130.9999999999999716, 200.0000000000000000, 0.000000000000000000 ) ) ;
#56 = DIRECTION ( 'NONE',  ( -1.000000000000000000, -0.000000000000000000, -0.000000000000000000 ) ) ;
#57 = AXIS2_PLACEMENT_3D ( 'NONE', #139, #313, #108 ) ;
#58 =( NAMED_UNIT ( * ) SI_UNIT ( $, .STERADIAN. ) SOLID_ANGLE_UNIT ( ) );
#59 = CIRCLE ( 'NONE', #106, 26.99999999999996803 ) ;
#60 = SURFACE_SIDE_STYLE ('',( #87 ) ) ;
#61 = PRODUCT_DEFINITION_SHAPE ( 'NONE', 'NONE',  #29 ) ;
#62 = PRODUCT_CONTEXT ( 'NONE', #278, 'mechanical' ) ;
#63 = AXIS2_PLACEMENT_3D ( 'NONE', #50, #368, #81 ) ;
#64 =( NAMED_UNIT ( * ) PLANE_ANGLE_UNIT ( ) SI_UNIT ( $, .RADIAN. ) );
#65 = ORIENTED_EDGE ( 'NONE', *, *, #223, .F. ) ;
#66 = ADVANCED_FACE ( 'NONE', ( #177, #193 ), #174, .F. ) ;
#67 = ORIENTED_EDGE ( 'NONE', *, *, #287, .F. ) ;
#68 = MANIFOLD_SOLID_BREP ( 'Spiegeln1', #349 ) ;
#69 = FACE_OUTER_BOUND ( 'NONE', #263, .T. ) ;
#70 = ORIENTED_EDGE ( 'NONE', *, *, #346, .T. ) ;
#71 = EDGE_CURVE ( 'NONE', #226, #226, #5, .T. ) ;
#72 = CARTESIAN_POINT ( 'NONE',  ( 0.000000000000000000, 200.0000000000000000, 0.000000000000000000 ) ) ;
#73 = MECHANICAL_DESIGN_GEOMETRIC_PRESENTATION_REPRESENTATION (  '', ( #269 ), #319 ) ;
#74 = CIRCLE ( 'NONE', #2, 26.99999999999993960 ) ;
#75 = AXIS2_PLACEMENT_3D ( 'NONE', #180, #289, #167 ) ;
#76 = EDGE_CURVE ( 'NONE', #84, #84, #59, .T. ) ;
#77 = VERTEX_POINT ( 'NONE', #109 ) ;
#78 = FACE_OUTER_BOUND ( 'NONE', #9, .T. ) ;
#79 = PRODUCT_DEFINITION_CONTEXT ( 'detailed design', #123, 'design' ) ;
#80 = FACE_OUTER_BOUND ( 'NONE', #304, .T. ) ;
#81 = DIRECTION ( 'NONE',  ( -1.000000000000000000, 0.000000000000000000, 0.000000000000000000 ) ) ;
#82 = DIRECTION ( 'NONE',  ( 0.000000000000000000, 0.000000000000000000, 1.000000000000000000 ) ) ;
#83 = FACE_OUTER_BOUND ( 'NONE', #352, .T. ) ;
#84 = VERTEX_POINT ( 'NONE', #176 ) ;
#85 = AXIS2_PLACEMENT_3D ( 'NONE', #288, #255, #337 ) ;
#86 = ADVANCED_FACE ( 'NONE', ( #189, #305 ), #362, .F. ) ;
#87 = SURFACE_STYLE_FILL_AREA ( #344 ) ;
#88 = ORIENTED_EDGE ( 'NONE', *, *, #95, .T. ) ;
#89 = APPLICATION_PROTOCOL_DEFINITION ( 'draft international standard', 'automotive_design', 1998, #278 ) ;
#90 = TOROIDAL_SURFACE ( 'NONE', #247, 27.49999999999999645, 1.500000000000002665 ) ;
#91 = EDGE_LOOP ( 'NONE', ( #291 ) ) ;
#92 = CARTESIAN_POINT ( 'NONE',  ( -199.9999999999992042, -71.00000000000230216, 0.000000000000000000 ) ) ;
#93 = FACE_OUTER_BOUND ( 'NONE', #331, .T. ) ;
#94 = FACE_OUTER_BOUND ( 'NONE', #130, .T. ) ;
#95 = EDGE_CURVE ( 'NONE', #146, #146, #74, .T. ) ;
#96 = FACE_OUTER_BOUND ( 'NONE', #119, .T. ) ;
#97 = DIRECTION ( 'NONE',  ( 0.000000000000000000, 0.000000000000000000, 1.000000000000000000 ) ) ;
#98 = EDGE_LOOP ( 'NONE', ( #270 ) ) ;
#99 = CARTESIAN_POINT ( 'NONE',  ( -199.9999999999991758, -72.41421356237539442, 0.000000000000000000 ) ) ;
#100 = DIRECTION ( 'NONE',  ( -1.000000000000000000, -0.000000000000000000, -0.000000000000000000 ) ) ;
#101 =( GEOMETRIC_REPRESENTATION_CONTEXT ( 3 ) GLOBAL_UNCERTAINTY_ASSIGNED_CONTEXT ( ( #234 ) ) GLOBAL_UNIT_ASSIGNED_CONTEXT ( ( #220, #22, #111 ) ) REPRESENTATION_CONTEXT ( 'NONE', 'WORKASPACE' ) );
#102 = DIRECTION ( 'NONE',  ( -1.000000000000000000, -0.000000000000000000, -0.000000000000000000 ) ) ;
#103 = PRODUCT_DEFINITION_FORMATION_WITH_SPECIFIED_SOURCE ( 'ANY', '', #266, .NOT_KNOWN. ) ;
#104 = CARTESIAN_POINT ( 'NONE',  ( 0.000000000000000000, 200.0000000000000000, 0.000000000000000000 ) ) ;
#105 = EDGE_CURVE ( 'NONE', #51, #51, #166, .T. ) ;
#106 = AXIS2_PLACEMENT_3D ( 'NONE', #99, #275, #212 ) ;
#107 = CARTESIAN_POINT ( 'NONE',  ( 72.41421356237307805, 200.0000000000000000, 26.99999999999996803 ) ) ;
#108 = DIRECTION ( 'NONE',  ( 0.000000000000000000, 0.000000000000000000, 1.000000000000000000 ) ) ;
#109 = CARTESIAN_POINT ( 'NONE',  ( 73.23606797749975783, 200.0000000000000000, 25.49999999999996803 ) ) ;
#110 = FACE_OUTER_BOUND ( 'NONE', #348, .T. ) ;
#111 =( NAMED_UNIT ( * ) SI_UNIT ( $, .STERADIAN. ) SOLID_ANGLE_UNIT ( ) );
#112 =( LENGTH_UNIT ( ) NAMED_UNIT ( * ) SI_UNIT ( .MILLI., .METRE. ) );
#113 = ADVANCED_FACE ( 'NONE', ( #38, #161 ), #323, .T. ) ;
#114 = AXIS2_PLACEMENT_3D ( 'NONE', #194, #242, #218 ) ;
#115 = CARTESIAN_POINT ( 'NONE',  ( -200.0000000000000000, -2.309263891220325604E-12, 0.000000000000000000 ) ) ;
#116 = VERTEX_POINT ( 'NONE', #202 ) ;
#117 = CIRCLE ( 'NONE', #324, 26.99999999999996803 ) ;
#118 = SURFACE_SIDE_STYLE ('',( #367 ) ) ;
#119 = EDGE_LOOP ( 'NONE', ( #299 ) ) ;
#120 = EDGE_LOOP ( 'NONE', ( #156 ) ) ;
#121 = CIRCLE ( 'NONE', #281, 26.99999999999996803 ) ;
#122 = ORIENTED_EDGE ( 'NONE', *, *, #328, .F. ) ;
#123 = APPLICATION_CONTEXT ( 'automotive_design' ) ;
#124 = CYLINDRICAL_SURFACE ( 'NONE', #195, 26.99999999999996803 ) ;
#125 = AXIS2_PLACEMENT_3D ( 'NONE', #284, #317, #52 ) ;
#126 = ORIENTED_EDGE ( 'NONE', *, *, #152, .T. ) ;
#127 = DIRECTION ( 'NONE',  ( -1.000000000000000000, -0.000000000000000000, -0.000000000000000000 ) ) ;
#128 = ORIENTED_EDGE ( 'NONE', *, *, #328, .T. ) ;
#129 = DIRECTION ( 'NONE',  ( 0.000000000000000000, 0.000000000000000000, 1.000000000000000000 ) ) ;
#130 = EDGE_LOOP ( 'NONE', ( #158 ) ) ;
#131 = DIRECTION ( 'NONE',  ( 0.000000000000000000, 0.000000000000000000, 1.000000000000000000 ) ) ;
#132 = CARTESIAN_POINT ( 'NONE',  ( -199.9999999999992042, -69.58578643762922411, 0.000000000000000000 ) ) ;
#133 = CYLINDRICAL_SURFACE ( 'NONE', #27, 26.99999999999995381 ) ;
#134 = EDGE_CURVE ( 'NONE', #54, #54, #178, .T. ) ;
#135 = DIRECTION ( 'NONE',  ( 1.143529715363911237E-14, -1.000000000000000000, 0.000000000000000000 ) ) ;
#136 = AXIS2_PLACEMENT_3D ( 'NONE', #206, #238, #345 ) ;
#137 = CARTESIAN_POINT ( 'NONE',  ( 0.000000000000000000, 200.0000000000000000, 25.49999999999997158 ) ) ;
#138 = AXIS2_PLACEMENT_3D ( 'NONE', #227, #339, #230 ) ;
#139 = CARTESIAN_POINT ( 'NONE',  ( -200.0000000000000000, -2.309263891220325604E-12, 0.000000000000000000 ) ) ;
#140 = CARTESIAN_POINT ( 'NONE',  ( -199.9999999999985221, -131.0000000000023022, 25.49999999999996803 ) ) ;
#141 = SURFACE_STYLE_USAGE ( .BOTH. , #118 ) ;
#142 = DIRECTION ( 'NONE',  ( 0.000000000000000000, 0.000000000000000000, 1.000000000000000000 ) ) ;
#143 = ADVANCED_FACE ( 'NONE', ( #353, #165 ), #357, .F. ) ;
#144 = VERTEX_POINT ( 'NONE', #12 ) ;
#145 = CARTESIAN_POINT ( 'NONE',  ( -199.9999999999985221, -131.0000000000022737, 0.000000000000000000 ) ) ;
#146 = VERTEX_POINT ( 'NONE', #47 ) ;
#147 = ORIENTED_EDGE ( 'NONE', *, *, #217, .T. ) ;
#148 = EDGE_CURVE ( 'NONE', #262, #262, #153, .T. ) ;
#149 = FILL_AREA_STYLE_COLOUR ( '', #300 ) ;
#150 = UNCERTAINTY_MEASURE_WITH_UNIT (LENGTH_MEASURE( 1.000000000000000082E-05 ), #112, 'distance_accuracy_value', 'NONE');
#151 = SHAPE_DEFINITION_REPRESENTATION ( #61, #343 ) ;
#152 = EDGE_CURVE ( 'NONE', #361, #361, #298, .T. ) ;
#153 = CIRCLE ( 'NONE', #31, 25.49999999999996803 ) ;
#154 = EDGE_LOOP ( 'NONE', ( #37 ) ) ;
#155 = CIRCLE ( 'NONE', #57, 26.99999999999996803 ) ;
#156 = ORIENTED_EDGE ( 'NONE', *, *, #105, .F. ) ;
#157 = DIRECTION ( 'NONE',  ( -1.000000000000000000, 0.000000000000000000, 0.000000000000000000 ) ) ;
#158 = ORIENTED_EDGE ( 'NONE', *, *, #217, .F. ) ;
#159 = AXIS2_PLACEMENT_3D ( 'NONE', #326, #162, #329 ) ;
#160 = ADVANCED_FACE ( 'NONE', ( #46, #83 ), #286, .F. ) ;
#161 = FACE_OUTER_BOUND ( 'NONE', #7, .T. ) ;
#162 = DIRECTION ( 'NONE',  ( -1.000000000000000000, 0.000000000000000000, -0.000000000000000000 ) ) ;
#163 = DIRECTION ( 'NONE',  ( -1.143529715363911237E-14, 1.000000000000000000, -0.000000000000000000 ) ) ;
#164 = EDGE_LOOP ( 'NONE', ( #32 ) ) ;
#165 = FACE_OUTER_BOUND ( 'NONE', #354, .T. ) ;
#166 = CIRCLE ( 'NONE', #114, 25.49999999999996803 ) ;
#167 = DIRECTION ( 'NONE',  ( 0.000000000000000000, 0.000000000000000000, 1.000000000000000000 ) ) ;
#168 = FACE_OUTER_BOUND ( 'NONE', #154, .T. ) ;
#169 = DIRECTION ( 'NONE',  ( 1.143529715363911237E-14, -1.000000000000000000, 0.000000000000000000 ) ) ;
#170 = CYLINDRICAL_SURFACE ( 'NONE', #232, 25.49999999999996803 ) ;
#171 = CARTESIAN_POINT ( 'NONE',  ( 0.000000000000000000, 200.0000000000000000, 26.99999999999996803 ) ) ;
#172 = CARTESIAN_POINT ( 'NONE',  ( -199.9999999999992042, -69.58578643762922411, 26.99999999999993960 ) ) ;
#173 = CYLINDRICAL_SURFACE ( 'NONE', #138, 26.99999999999995381 ) ;
#174 = PLANE ( 'NONE',  #125 ) ;
#175 = CARTESIAN_POINT ( 'NONE',  ( -199.9999999999992042, -71.00000000000230216, 0.000000000000000000 ) ) ;
#176 = CARTESIAN_POINT ( 'NONE',  ( -199.9999999999991758, -72.41421356237539442, 26.99999999999996803 ) ) ;
#177 = FACE_OUTER_BOUND ( 'NONE', #239, .T. ) ;
#178 = CIRCLE ( 'NONE', #314, 25.49999999999997158 ) ;
#179 =( GEOMETRIC_REPRESENTATION_CONTEXT ( 3 ) GLOBAL_UNCERTAINTY_ASSIGNED_CONTEXT ( ( #150 ) ) GLOBAL_UNIT_ASSIGNED_CONTEXT ( ( #112, #229, #24 ) ) REPRESENTATION_CONTEXT ( 'NONE', 'WORKASPACE' ) );
#180 = CARTESIAN_POINT ( 'NONE',  ( 0.000000000000000000, 200.0000000000000000, 0.000000000000000000 ) ) ;
#181 = ADVANCED_FACE ( 'NONE', ( #11, #168 ), #90, .F. ) ;
#182 = ORIENTED_EDGE ( 'NONE', *, *, #95, .F. ) ;
#183 = DIRECTION ( 'NONE',  ( 0.000000000000000000, 0.000000000000000000, 1.000000000000000000 ) ) ;
#184 = SURFACE_STYLE_USAGE ( .BOTH. , #60 ) ;
#185 = EDGE_LOOP ( 'NONE', ( #88 ) ) ;
#186 = EDGE_LOOP ( 'NONE', ( #6 ) ) ;
#187 = AXIS2_PLACEMENT_3D ( 'NONE', #25, #14, #224 ) ;
#188 = EDGE_LOOP ( 'NONE', ( #330 ) ) ;
#189 = FACE_OUTER_BOUND ( 'NONE', #347, .T. ) ;
#190 = PRESENTATION_LAYER_ASSIGNMENT (  '', '', ( #269 ) ) ;
#191 = FACE_OUTER_BOUND ( 'NONE', #248, .T. ) ;
#192 = EDGE_LOOP ( 'NONE', ( #33 ) ) ;
#193 = FACE_BOUND ( 'NONE', #272, .T. ) ;
#194 = CARTESIAN_POINT ( 'NONE',  ( 68.76393202250022796, 200.0000000000000000, 0.000000000000000000 ) ) ;
#195 = AXIS2_PLACEMENT_3D ( 'NONE', #325, #213, #243 ) ;
#196 = FACE_OUTER_BOUND ( 'NONE', #39, .T. ) ;
#197 = CARTESIAN_POINT ( 'NONE',  ( 0.000000000000000000, 200.0000000000000000, 0.000000000000000000 ) ) ;
#198 = PRODUCT_RELATED_PRODUCT_CATEGORY ( 'part', '', ( #266 ) ) ;
#199 = CYLINDRICAL_SURFACE ( 'NONE', #318, 25.49999999999996803 ) ;
#200 = VERTEX_POINT ( 'NONE', #172 ) ;
#201 = CYLINDRICAL_SURFACE ( 'NONE', #254, 25.49999999999996803 ) ;
#202 = CARTESIAN_POINT ( 'NONE',  ( -200.0000000000000000, -2.309263891220325604E-12, 26.99999999999996803 ) ) ;
#203 = AXIS2_PLACEMENT_3D ( 'NONE', #310, #169, #342 ) ;
#204 = ADVANCED_FACE ( 'NONE', ( #307, #78 ), #306, .T. ) ;
#205 = PRESENTATION_STYLE_ASSIGNMENT (( #184 ) ) ;
#206 = CARTESIAN_POINT ( 'NONE',  ( 0.000000000000000000, 0.000000000000000000, 0.000000000000000000 ) ) ;
#207 = DIRECTION ( 'NONE',  ( 1.143529715363911237E-14, -1.000000000000000000, 0.000000000000000000 ) ) ;
#208 = AXIS2_PLACEMENT_3D ( 'NONE', #13, #222, #225 ) ;
#209 = AXIS2_PLACEMENT_3D ( 'NONE', #372, #56, #82 ) ;
#210 = ORIENTED_EDGE ( 'NONE', *, *, #373, .T. ) ;
#211 = PLANE ( 'NONE',  #159 ) ;
#212 = DIRECTION ( 'NONE',  ( 0.000000000000000000, 0.000000000000000000, 1.000000000000000000 ) ) ;
#213 = DIRECTION ( 'NONE',  ( -1.143529715363911237E-14, 1.000000000000000000, -0.000000000000000000 ) ) ;
#214 = CARTESIAN_POINT ( 'NONE',  ( 131.0000000000000000, 200.0000000000000000, 0.000000000000000000 ) ) ;
#215 = ORIENTED_EDGE ( 'NONE', *, *, #105, .T. ) ;
#216 = ORIENTED_EDGE ( 'NONE', *, *, #76, .F. ) ;
#217 = EDGE_CURVE ( 'NONE', #340, #340, #117, .T. ) ;
#218 = DIRECTION ( 'NONE',  ( 0.000000000000000000, 0.000000000000000000, 1.000000000000000000 ) ) ;
#219 = CARTESIAN_POINT ( 'NONE',  ( 72.41421356237307805, 200.0000000000000000, 0.000000000000000000 ) ) ;
#220 =( LENGTH_UNIT ( ) NAMED_UNIT ( * ) SI_UNIT ( .MILLI., .METRE. ) );
#221 = AXIS2_PLACEMENT_3D ( 'NONE', #311, #207, #183 ) ;
#222 = DIRECTION ( 'NONE',  ( -1.000000000000000000, -0.000000000000000000, -0.000000000000000000 ) ) ;
#223 = EDGE_CURVE ( 'NONE', #369, #369, #44, .T. ) ;
#224 = DIRECTION ( 'NONE',  ( 0.000000000000000000, 0.000000000000000000, 1.000000000000000000 ) ) ;
#225 = DIRECTION ( 'NONE',  ( 0.000000000000000000, 0.000000000000000000, 1.000000000000000000 ) ) ;
#226 = VERTEX_POINT ( 'NONE', #338 ) ;
#227 = CARTESIAN_POINT ( 'NONE',  ( -200.0000000000000000, -2.309263891220325604E-12, 0.000000000000000000 ) ) ;
#228 = FACE_OUTER_BOUND ( 'NONE', #185, .T. ) ;
#229 =( NAMED_UNIT ( * ) PLANE_ANGLE_UNIT ( ) SI_UNIT ( $, .RADIAN. ) );
#230 = DIRECTION ( 'NONE',  ( 0.000000000000000000, 0.000000000000000000, 1.000000000000000000 ) ) ;
#231 = DIRECTION ( 'NONE',  ( -1.000000000000000000, -0.000000000000000000, -0.000000000000000000 ) ) ;
#232 = AXIS2_PLACEMENT_3D ( 'NONE', #115, #282, #18 ) ;
#233 = TOROIDAL_SURFACE ( 'NONE', #15, 27.49999999999999645, 3.000000000000004885 ) ;
#234 = UNCERTAINTY_MEASURE_WITH_UNIT (LENGTH_MEASURE( 1.000000000000000082E-05 ), #220, 'distance_accuracy_value', 'NONE');
#235 = ORIENTED_EDGE ( 'NONE', *, *, #148, .T. ) ;
#236 = ADVANCED_FACE ( 'NONE', ( #196, #363 ), #199, .F. ) ;
#237 = EDGE_LOOP ( 'NONE', ( #126 ) ) ;
#238 = DIRECTION ( 'NONE',  ( 0.000000000000000000, 0.000000000000000000, 1.000000000000000000 ) ) ;
#239 = EDGE_LOOP ( 'NONE', ( #147 ) ) ;
#240 = EDGE_LOOP ( 'NONE', ( #245 ) ) ;
#241 = AXIS2_PLACEMENT_3D ( 'NONE', #34, #8, #157 ) ;
#242 = DIRECTION ( 'NONE',  ( -1.000000000000000000, -0.000000000000000000, -0.000000000000000000 ) ) ;
#243 = DIRECTION ( 'NONE',  ( 0.000000000000000000, 0.000000000000000000, 1.000000000000000000 ) ) ;
#244 = ADVANCED_FACE ( 'NONE', ( #23, #261 ), #201, .F. ) ;
#245 = ORIENTED_EDGE ( 'NONE', *, *, #152, .F. ) ;
#246 = DIRECTION ( 'NONE',  ( 0.000000000000000000, 0.000000000000000000, 1.000000000000000000 ) ) ;
#247 = AXIS2_PLACEMENT_3D ( 'NONE', #358, #285, #360 ) ;
#248 = EDGE_LOOP ( 'NONE', ( #65 ) ) ;
#249 = ORIENTED_EDGE ( 'NONE', *, *, #346, .F. ) ;
#250 = DIRECTION ( 'NONE',  ( -1.000000000000000000, -0.000000000000000000, -0.000000000000000000 ) ) ;
#251 = DIRECTION ( 'NONE',  ( -1.143529715363911237E-14, 1.000000000000000000, -0.000000000000000000 ) ) ;
#252 = CARTESIAN_POINT ( 'NONE',  ( -199.9999999999991758, -73.23606797750207420, 25.49999999999996803 ) ) ;
#253 = DIRECTION ( 'NONE',  ( 0.000000000000000000, 0.000000000000000000, 1.000000000000000000 ) ) ;
#254 = AXIS2_PLACEMENT_3D ( 'NONE', #104, #100, #253 ) ;
#255 = DIRECTION ( 'NONE',  ( -1.000000000000000000, -0.000000000000000000, -0.000000000000000000 ) ) ;
#256 = DIRECTION ( 'NONE',  ( 0.000000000000000000, 0.000000000000000000, 1.000000000000000000 ) ) ;
#257 = CARTESIAN_POINT ( 'NONE',  ( 131.0000000000000000, 200.0000000000000000, 25.49999999999996803 ) ) ;
#258 = PRESENTATION_STYLE_ASSIGNMENT (( #141 ) ) ;
#259 = FACE_OUTER_BOUND ( 'NONE', #302, .T. ) ;
#260 = DIRECTION ( 'NONE',  ( 0.000000000000000000, 0.000000000000000000, 1.000000000000000000 ) ) ;
#261 = FACE_OUTER_BOUND ( 'NONE', #164, .T. ) ;
#262 = VERTEX_POINT ( 'NONE', #257 ) ;
#263 = EDGE_LOOP ( 'NONE', ( #70 ) ) ;
#264 =( LENGTH_UNIT ( ) NAMED_UNIT ( * ) SI_UNIT ( .MILLI., .METRE. ) );
#265 = EDGE_CURVE ( 'NONE', #200, #200, #16, .T. ) ;
#266 = PRODUCT ( '2046813', '2046813', '', ( #62 ) ) ;
#267 = EDGE_LOOP ( 'NONE', ( #235 ) ) ;
#268 = ADVANCED_FACE ( 'NONE', ( #259, #365 ), #170, .F. ) ;
#269 = STYLED_ITEM ( 'NONE', ( #205 ), #343 ) ;
#270 = ORIENTED_EDGE ( 'NONE', *, *, #148, .F. ) ;
#271 = STYLED_ITEM ( 'NONE', ( #258 ), #68 ) ;
#272 = EDGE_LOOP ( 'NONE', ( #26 ) ) ;
#273 = DIRECTION ( 'NONE',  ( 0.000000000000000000, 0.000000000000000000, 1.000000000000000000 ) ) ;
#274 = ORIENTED_EDGE ( 'NONE', *, *, #134, .F. ) ;
#275 = DIRECTION ( 'NONE',  ( 1.143529715363911237E-14, -1.000000000000000000, 0.000000000000000000 ) ) ;
#276 = ORIENTED_EDGE ( 'NONE', *, *, #265, .T. ) ;
#277 = CARTESIAN_POINT ( 'NONE',  ( -200.0000000000000000, -2.309263891220325604E-12, 0.000000000000000000 ) ) ;
#278 = APPLICATION_CONTEXT ( 'automotive_design' ) ;
#279 = DIRECTION ( 'NONE',  ( 0.000000000000000000, 0.000000000000000000, 1.000000000000000000 ) ) ;
#280 = CARTESIAN_POINT ( 'NONE',  ( -200.0000000000000000, -2.309263891220325604E-12, 25.49999999999997158 ) ) ;
#281 = AXIS2_PLACEMENT_3D ( 'NONE', #55, #231, #260 ) ;
#282 = DIRECTION ( 'NONE',  ( -1.143529715363911237E-14, 1.000000000000000000, -0.000000000000000000 ) ) ;
#283 = VERTEX_POINT ( 'NONE', #252 ) ;
#284 = CARTESIAN_POINT ( 'NONE',  ( -226.9999999999984936, -131.0000000000026148, 0.000000000000000000 ) ) ;
#285 = DIRECTION ( 'NONE',  ( -1.000000000000000000, -0.000000000000000000, -0.000000000000000000 ) ) ;
#286 = CYLINDRICAL_SURFACE ( 'NONE', #208, 25.49999999999996803 ) ;
#287 = EDGE_CURVE ( 'NONE', #116, #116, #155, .T. ) ;
#288 = CARTESIAN_POINT ( 'NONE',  ( 0.000000000000000000, 200.0000000000000000, 0.000000000000000000 ) ) ;
#289 = DIRECTION ( 'NONE',  ( -1.000000000000000000, -0.000000000000000000, -0.000000000000000000 ) ) ;
#290 = CIRCLE ( 'NONE', #85, 26.99999999999996803 ) ;
#291 = ORIENTED_EDGE ( 'NONE', *, *, #71, .F. ) ;
#292 = CIRCLE ( 'NONE', #187, 25.49999999999996803 ) ;
#293 = AXIS2_PLACEMENT_3D ( 'NONE', #332, #250, #273 ) ;
#294 = CIRCLE ( 'NONE', #209, 25.49999999999996803 ) ;
#295 = AXIS2_PLACEMENT_3D ( 'NONE', #219, #21, #279 ) ;
#296 = ORIENTED_EDGE ( 'NONE', *, *, #134, .T. ) ;
#297 = EDGE_LOOP ( 'NONE', ( #182 ) ) ;
#298 = CIRCLE ( 'NONE', #322, 25.49999999999997158 ) ;
#299 = ORIENTED_EDGE ( 'NONE', *, *, #76, .T. ) ;
#300 = COLOUR_RGB ( '',0.7921568627450980005, 0.8196078431372548767, 0.9333333333333333481 ) ;
#301 = FACE_BOUND ( 'NONE', #267, .T. ) ;
#302 = EDGE_LOOP ( 'NONE', ( #40 ) ) ;
#303 = ADVANCED_FACE ( 'NONE', ( #110, #53 ), #173, .T. ) ;
#304 = EDGE_LOOP ( 'NONE', ( #122 ) ) ;
#305 = FACE_OUTER_BOUND ( 'NONE', #237, .T. ) ;
#306 = TOROIDAL_SURFACE ( 'NONE', #63, 199.9999999999999716, 26.99999999999996803 ) ;
#307 = FACE_OUTER_BOUND ( 'NONE', #1, .T. ) ;
#308 = DIRECTION ( 'NONE',  ( 0.000000000000000000, 0.000000000000000000, 1.000000000000000000 ) ) ;
#309 = DIRECTION ( 'NONE',  ( -1.143529715363911237E-14, 1.000000000000000000, -0.000000000000000000 ) ) ;
#310 = CARTESIAN_POINT ( 'NONE',  ( -199.9999999999985221, -131.0000000000023022, 0.000000000000000000 ) ) ;
#311 = CARTESIAN_POINT ( 'NONE',  ( -199.9999999999992326, -68.76393202250253012, 0.000000000000000000 ) ) ;
#312 = ADVANCED_FACE ( 'NONE', ( #341, #315 ), #233, .T. ) ;
#313 = DIRECTION ( 'NONE',  ( 1.143529715363911237E-14, -1.000000000000000000, 0.000000000000000000 ) ) ;
#314 = AXIS2_PLACEMENT_3D ( 'NONE', #72, #41, #246 ) ;
#315 = FACE_OUTER_BOUND ( 'NONE', #91, .T. ) ;
#316 = VERTEX_POINT ( 'NONE', #171 ) ;
#317 = DIRECTION ( 'NONE',  ( -1.143529715363911237E-14, 1.000000000000000000, 0.000000000000000000 ) ) ;
#318 = AXIS2_PLACEMENT_3D ( 'NONE', #336, #309, #142 ) ;
#319 =( GEOMETRIC_REPRESENTATION_CONTEXT ( 3 ) GLOBAL_UNCERTAINTY_ASSIGNED_CONTEXT ( ( #321 ) ) GLOBAL_UNIT_ASSIGNED_CONTEXT ( ( #264, #64, #58 ) ) REPRESENTATION_CONTEXT ( 'NONE', 'WORKASPACE' ) );
#320 = APPLICATION_PROTOCOL_DEFINITION ( 'draft international standard', 'automotive_design', 1998, #123 ) ;
#321 = UNCERTAINTY_MEASURE_WITH_UNIT (LENGTH_MEASURE( 1.000000000000000082E-05 ), #264, 'distance_accuracy_value', 'NONE');
#322 = AXIS2_PLACEMENT_3D ( 'NONE', #277, #43, #131 ) ;
#323 = TOROIDAL_SURFACE ( 'NONE', #293, 27.49999999999999645, 3.000000000000004885 ) ;
#324 = AXIS2_PLACEMENT_3D ( 'NONE', #145, #135, #256 ) ;
#325 = CARTESIAN_POINT ( 'NONE',  ( -200.0000000000000000, -2.309263891220325604E-12, 0.000000000000000000 ) ) ;
#326 = CARTESIAN_POINT ( 'NONE',  ( 131.0000000000000000, 226.9999999999999716, 0.000000000000000000 ) ) ;
#327 = DIRECTION ( 'NONE',  ( 0.000000000000000000, 0.000000000000000000, 1.000000000000000000 ) ) ;
#328 = EDGE_CURVE ( 'NONE', #316, #316, #290, .T. ) ;
#329 = DIRECTION ( 'NONE',  ( -0.000000000000000000, 0.000000000000000000, 1.000000000000000000 ) ) ;
#330 = ORIENTED_EDGE ( 'NONE', *, *, #351, .T. ) ;
#331 = EDGE_LOOP ( 'NONE', ( #249 ) ) ;
#332 = CARTESIAN_POINT ( 'NONE',  ( 71.00000000000000000, 200.0000000000000000, 0.000000000000000000 ) ) ;
#333 = DIRECTION ( 'NONE',  ( 0.000000000000000000, 0.000000000000000000, 1.000000000000000000 ) ) ;
#334 = ADVANCED_FACE ( 'NONE', ( #80, #228 ), #133, .T. ) ;
#335 = MECHANICAL_DESIGN_GEOMETRIC_PRESENTATION_REPRESENTATION (  '', ( #271 ), #179 ) ;
#336 = CARTESIAN_POINT ( 'NONE',  ( -200.0000000000000000, -2.309263891220325604E-12, 0.000000000000000000 ) ) ;
#337 = DIRECTION ( 'NONE',  ( 0.000000000000000000, 0.000000000000000000, 1.000000000000000000 ) ) ;
#338 = CARTESIAN_POINT ( 'NONE',  ( -199.9999999999992326, -68.76393202250253012, 25.49999999999996803 ) ) ;
#339 = DIRECTION ( 'NONE',  ( -1.143529715363911237E-14, 1.000000000000000000, -0.000000000000000000 ) ) ;
#340 = VERTEX_POINT ( 'NONE', #49 ) ;
#341 = FACE_OUTER_BOUND ( 'NONE', #188, .T. ) ;
#342 = DIRECTION ( 'NONE',  ( 0.000000000000000000, 0.000000000000000000, 1.000000000000000000 ) ) ;
#343 = ADVANCED_BREP_SHAPE_REPRESENTATION ( '2046813', ( #68, #136 ), #101 ) ;
#344 = FILL_AREA_STYLE ('',( #149 ) ) ;
#345 = DIRECTION ( 'NONE',  ( 1.000000000000000000, 0.000000000000000000, 0.000000000000000000 ) ) ;
#346 = EDGE_CURVE ( 'NONE', #144, #144, #121, .T. ) ;
#347 = EDGE_LOOP ( 'NONE', ( #274 ) ) ;
#348 = EDGE_LOOP ( 'NONE', ( #350 ) ) ;
#349 = CLOSED_SHELL ( 'NONE', ( #160, #113, #244, #17, #36, #181, #334, #86, #204, #268, #312, #236, #66, #10, #143, #303 ) ) ;
#350 = ORIENTED_EDGE ( 'NONE', *, *, #287, .T. ) ;
#351 = EDGE_CURVE ( 'NONE', #283, #283, #292, .T. ) ;
#352 = EDGE_LOOP ( 'NONE', ( #296 ) ) ;
#353 = FACE_OUTER_BOUND ( 'NONE', #3, .T. ) ;
#354 = EDGE_LOOP ( 'NONE', ( #216 ) ) ;
#355 = DIRECTION ( 'NONE',  ( -1.000000000000000000, -0.000000000000000000, -0.000000000000000000 ) ) ;
#356 = EDGE_LOOP ( 'NONE', ( #30 ) ) ;
#357 = TOROIDAL_SURFACE ( 'NONE', #374, 27.49999999999999645, 1.500000000000002665 ) ;
#358 = CARTESIAN_POINT ( 'NONE',  ( 71.00000000000000000, 200.0000000000000000, 0.000000000000000000 ) ) ;
#359 = CIRCLE ( 'NONE', #203, 25.49999999999996803 ) ;
#360 = DIRECTION ( 'NONE',  ( 0.000000000000000000, 0.000000000000000000, 1.000000000000000000 ) ) ;
#361 = VERTEX_POINT ( 'NONE', #280 ) ;
#362 = TOROIDAL_SURFACE ( 'NONE', #241, 199.9999999999999716, 25.49999999999997158 ) ;
#363 = FACE_OUTER_BOUND ( 'NONE', #186, .T. ) ;
#364 = DIRECTION ( 'NONE',  ( 0.000000000000000000, 0.000000000000000000, 1.000000000000000000 ) ) ;
#365 = FACE_OUTER_BOUND ( 'NONE', #240, .T. ) ;
#366 = CARTESIAN_POINT ( 'NONE',  ( 68.76393202250022796, 200.0000000000000000, 25.49999999999996803 ) ) ;
#367 = SURFACE_STYLE_FILL_AREA ( #20 ) ;
#368 = DIRECTION ( 'NONE',  ( -0.000000000000000000, -0.000000000000000000, -1.000000000000000000 ) ) ;
#369 = VERTEX_POINT ( 'NONE', #107 ) ;
#370 = CYLINDRICAL_SURFACE ( 'NONE', #75, 26.99999999999996803 ) ;
#371 = FILL_AREA_STYLE_COLOUR ( '', #45 ) ;
#372 = CARTESIAN_POINT ( 'NONE',  ( 73.23606797749975783, 200.0000000000000000, 0.000000000000000000 ) ) ;
#373 = EDGE_CURVE ( 'NONE', #19, #19, #359, .T. ) ;
#374 = AXIS2_PLACEMENT_3D ( 'NONE', #92, #163, #129 ) ;
ENDSEC;
END-ISO-10303-21;
