ISO-10303-21;
HEADER;
FILE_DESCRIPTION (( 'STEP AP214' ),
    '1' );
FILE_NAME ('2046755.stp',
    '2024-05-02T14:52:15',
    ( '' ),
    ( '' ),
    'SwSTEP 2.0',
    'SolidWorks 2022',
    '' );
FILE_SCHEMA (( 'AUTOMOTIVE_DESIGN' ));
ENDSEC;

DATA;
#1 = DIRECTION ( 'NONE',  ( 0.000000000000000000, 0.000000000000000000, -1.000000000000000000 ) ) ;
#2 = AXIS2_PLACEMENT_3D ( 'NONE', #132, #8, #134 ) ;
#3 =( LENGTH_UNIT ( ) NAMED_UNIT ( * ) SI_UNIT ( .MILLI., .METRE. ) );
#4 = CIRCLE ( 'NONE', #18, 25.00000000000000000 ) ;
#5 = DIRECTION ( 'NONE',  ( 1.000000000000000000, 0.000000000000000000, 0.000000000000000000 ) ) ;
#6 = PRESENTATION_STYLE_ASSIGNMENT (( #73 ) ) ;
#7 = VERTEX_POINT ( 'NONE', #51 ) ;
#8 = DIRECTION ( 'NONE',  ( 1.000000000000000000, 0.000000000000000000, 0.000000000000000000 ) ) ;
#9 = PRODUCT_CONTEXT ( 'NONE', #54, 'mechanical' ) ;
#10 = EDGE_CURVE ( 'NONE', #42, #42, #4, .T. ) ;
#11 = ORIENTED_EDGE ( 'NONE', *, *, #24, .F. ) ;
#12 = CLOSED_SHELL ( 'NONE', ( #75, #127, #126, #47 ) ) ;
#13 = PRODUCT_DEFINITION_FORMATION_WITH_SPECIFIED_SOURCE ( 'ANY', '', #31, .NOT_KNOWN. ) ;
#14 = CARTESIAN_POINT ( 'NONE',  ( 0.000000000000000000, 0.000000000000000000, 0.000000000000000000 ) ) ;
#15 = FILL_AREA_STYLE ('',( #112 ) ) ;
#16 =( LENGTH_UNIT ( ) NAMED_UNIT ( * ) SI_UNIT ( .MILLI., .METRE. ) );
#17 = FACE_OUTER_BOUND ( 'NONE', #25, .T. ) ;
#18 = AXIS2_PLACEMENT_3D ( 'NONE', #101, #37, #55 ) ;
#19 = STYLED_ITEM ( 'NONE', ( #6 ), #27 ) ;
#20 = CARTESIAN_POINT ( 'NONE',  ( 0.000000000000000000, 0.000000000000000000, 0.000000000000000000 ) ) ;
#21 = APPLICATION_PROTOCOL_DEFINITION ( 'draft international standard', 'automotive_design', 1998, #97 ) ;
#22 = EDGE_LOOP ( 'NONE', ( #130 ) ) ;
#23 = AXIS2_PLACEMENT_3D ( 'NONE', #70, #109, #107 ) ;
#24 = EDGE_CURVE ( 'NONE', #7, #7, #133, .T. ) ;
#25 = EDGE_LOOP ( 'NONE', ( #11 ) ) ;
#26 =( NAMED_UNIT ( * ) PLANE_ANGLE_UNIT ( ) SI_UNIT ( $, .RADIAN. ) );
#27 = ADVANCED_BREP_SHAPE_REPRESENTATION ( '2046755', ( #46, #35 ), #122 ) ;
#28 = EDGE_CURVE ( 'NONE', #32, #32, #103, .T. ) ;
#29 = DIRECTION ( 'NONE',  ( -1.000000000000000000, -0.000000000000000000, -0.000000000000000000 ) ) ;
#30 = APPLICATION_PROTOCOL_DEFINITION ( 'draft international standard', 'automotive_design', 1998, #54 ) ;
#31 = PRODUCT ( '2046755', '2046755', '', ( #9 ) ) ;
#32 = VERTEX_POINT ( 'NONE', #131 ) ;
#33 = PRODUCT_DEFINITION ( 'UNKNOWN', '', #13, #118 ) ;
#34 =( GEOMETRIC_REPRESENTATION_CONTEXT ( 3 ) GLOBAL_UNCERTAINTY_ASSIGNED_CONTEXT ( ( #87 ) ) GLOBAL_UNIT_ASSIGNED_CONTEXT ( ( #3, #26, #49 ) ) REPRESENTATION_CONTEXT ( 'NONE', 'WORKASPACE' ) );
#35 = AXIS2_PLACEMENT_3D ( 'NONE', #20, #64, #86 ) ;
#36 = UNCERTAINTY_MEASURE_WITH_UNIT (LENGTH_MEASURE( 1.000000000000000082E-05 ), #16, 'distance_accuracy_value', 'NONE');
#37 = DIRECTION ( 'NONE',  ( 1.000000000000000000, 0.000000000000000000, 0.000000000000000000 ) ) ;
#38 = DIRECTION ( 'NONE',  ( 1.000000000000000000, 0.000000000000000000, 0.000000000000000000 ) ) ;
#39 = EDGE_LOOP ( 'NONE', ( #110 ) ) ;
#40 = FACE_OUTER_BOUND ( 'NONE', #89, .T. ) ;
#41 = COLOUR_RGB ( '',0.7529411764705882248, 0.7529411764705882248, 0.7529411764705882248 ) ;
#42 = VERTEX_POINT ( 'NONE', #62 ) ;
#43 = PRESENTATION_LAYER_ASSIGNMENT (  '', '', ( #19 ) ) ;
#44 = FILL_AREA_STYLE ('',( #99 ) ) ;
#45 = SURFACE_STYLE_USAGE ( .BOTH. , #80 ) ;
#46 = MANIFOLD_SOLID_BREP ( 'Aufsatz-Linear austragen1', #12 ) ;
#47 = ADVANCED_FACE ( 'NONE', ( #92, #125 ), #120, .F. ) ;
#48 = EDGE_LOOP ( 'NONE', ( #69 ) ) ;
#49 =( NAMED_UNIT ( * ) SI_UNIT ( $, .STERADIAN. ) SOLID_ANGLE_UNIT ( ) );
#50 = VERTEX_POINT ( 'NONE', #124 ) ;
#51 = CARTESIAN_POINT ( 'NONE',  ( 3000.000000000000000, 0.000000000000000000, -25.00000000000000000 ) ) ;
#52 = STYLED_ITEM ( 'NONE', ( #117 ), #46 ) ;
#53 = MECHANICAL_DESIGN_GEOMETRIC_PRESENTATION_REPRESENTATION (  '', ( #19 ), #56 ) ;
#54 = APPLICATION_CONTEXT ( 'automotive_design' ) ;
#55 = DIRECTION ( 'NONE',  ( 0.000000000000000000, 0.000000000000000000, -1.000000000000000000 ) ) ;
#56 =( GEOMETRIC_REPRESENTATION_CONTEXT ( 3 ) GLOBAL_UNCERTAINTY_ASSIGNED_CONTEXT ( ( #116 ) ) GLOBAL_UNIT_ASSIGNED_CONTEXT ( ( #76, #65, #115 ) ) REPRESENTATION_CONTEXT ( 'NONE', 'WORKASPACE' ) );
#57 = PLANE ( 'NONE',  #2 ) ;
#58 = EDGE_CURVE ( 'NONE', #50, #50, #106, .T. ) ;
#59 = PRESENTATION_LAYER_ASSIGNMENT (  '', '', ( #52 ) ) ;
#60 = SURFACE_STYLE_FILL_AREA ( #15 ) ;
#61 =( NAMED_UNIT ( * ) SI_UNIT ( $, .STERADIAN. ) SOLID_ANGLE_UNIT ( ) );
#62 = CARTESIAN_POINT ( 'NONE',  ( 0.000000000000000000, 0.000000000000000000, -25.00000000000000000 ) ) ;
#63 = AXIS2_PLACEMENT_3D ( 'NONE', #14, #72, #1 ) ;
#64 = DIRECTION ( 'NONE',  ( 0.000000000000000000, 0.000000000000000000, 1.000000000000000000 ) ) ;
#65 =( NAMED_UNIT ( * ) PLANE_ANGLE_UNIT ( ) SI_UNIT ( $, .RADIAN. ) );
#66 = SHAPE_DEFINITION_REPRESENTATION ( #128, #27 ) ;
#67 = ORIENTED_EDGE ( 'NONE', *, *, #28, .T. ) ;
#68 = CARTESIAN_POINT ( 'NONE',  ( 3000.000000000000000, 0.000000000000000000, 0.000000000000000000 ) ) ;
#69 = ORIENTED_EDGE ( 'NONE', *, *, #24, .T. ) ;
#70 = CARTESIAN_POINT ( 'NONE',  ( 3000.000000000000000, 0.000000000000000000, 0.000000000000000000 ) ) ;
#71 = DIRECTION ( 'NONE',  ( 0.000000000000000000, 0.000000000000000000, 1.000000000000000000 ) ) ;
#72 = DIRECTION ( 'NONE',  ( 1.000000000000000000, 0.000000000000000000, 0.000000000000000000 ) ) ;
#73 = SURFACE_STYLE_USAGE ( .BOTH. , #104 ) ;
#74 = PLANE ( 'NONE',  #98 ) ;
#75 = ADVANCED_FACE ( 'NONE', ( #81, #111 ), #57, .T. ) ;
#76 =( LENGTH_UNIT ( ) NAMED_UNIT ( * ) SI_UNIT ( .MILLI., .METRE. ) );
#77 = ORIENTED_EDGE ( 'NONE', *, *, #10, .F. ) ;
#78 = COLOUR_RGB ( '',0.7529411764705882248, 0.7529411764705882248, 0.7529411764705882248 ) ;
#79 = EDGE_LOOP ( 'NONE', ( #119 ) ) ;
#80 = SURFACE_SIDE_STYLE ('',( #129 ) ) ;
#81 = FACE_OUTER_BOUND ( 'NONE', #48, .T. ) ;
#82 = CARTESIAN_POINT ( 'NONE',  ( 0.000000000000000000, 0.000000000000000000, 0.000000000000000000 ) ) ;
#83 = AXIS2_PLACEMENT_3D ( 'NONE', #68, #38, #108 ) ;
#84 = DIRECTION ( 'NONE',  ( 0.000000000000000000, 0.000000000000000000, -1.000000000000000000 ) ) ;
#85 = FACE_OUTER_BOUND ( 'NONE', #22, .T. ) ;
#86 = DIRECTION ( 'NONE',  ( 1.000000000000000000, 0.000000000000000000, 0.000000000000000000 ) ) ;
#87 = UNCERTAINTY_MEASURE_WITH_UNIT (LENGTH_MEASURE( 1.000000000000000082E-05 ), #3, 'distance_accuracy_value', 'NONE');
#88 = EDGE_LOOP ( 'NONE', ( #67 ) ) ;
#89 = EDGE_LOOP ( 'NONE', ( #77 ) ) ;
#90 = EDGE_LOOP ( 'NONE', ( #100 ) ) ;
#91 =( NAMED_UNIT ( * ) PLANE_ANGLE_UNIT ( ) SI_UNIT ( $, .RADIAN. ) );
#92 = FACE_OUTER_BOUND ( 'NONE', #88, .T. ) ;
#93 = CARTESIAN_POINT ( 'NONE',  ( 3000.000000000000000, 0.000000000000000000, 0.000000000000000000 ) ) ;
#94 = MECHANICAL_DESIGN_GEOMETRIC_PRESENTATION_REPRESENTATION (  '', ( #52 ), #34 ) ;
#95 = DIRECTION ( 'NONE',  ( 0.000000000000000000, 0.000000000000000000, 1.000000000000000000 ) ) ;
#96 = CARTESIAN_POINT ( 'NONE',  ( 3000.000000000000000, 0.000000000000000000, 0.000000000000000000 ) ) ;
#97 = APPLICATION_CONTEXT ( 'automotive_design' ) ;
#98 = AXIS2_PLACEMENT_3D ( 'NONE', #82, #5, #84 ) ;
#99 = FILL_AREA_STYLE_COLOUR ( '', #41 ) ;
#100 = ORIENTED_EDGE ( 'NONE', *, *, #58, .T. ) ;
#101 = CARTESIAN_POINT ( 'NONE',  ( 0.000000000000000000, 0.000000000000000000, 0.000000000000000000 ) ) ;
#102 = FACE_BOUND ( 'NONE', #90, .T. ) ;
#103 = CIRCLE ( 'NONE', #83, 23.50000000000000355 ) ;
#104 = SURFACE_SIDE_STYLE ('',( #60 ) ) ;
#105 = PRODUCT_RELATED_PRODUCT_CATEGORY ( 'part', '', ( #31 ) ) ;
#106 = CIRCLE ( 'NONE', #63, 23.50000000000000355 ) ;
#107 = DIRECTION ( 'NONE',  ( 0.000000000000000000, 0.000000000000000000, -1.000000000000000000 ) ) ;
#108 = DIRECTION ( 'NONE',  ( 0.000000000000000000, 0.000000000000000000, -1.000000000000000000 ) ) ;
#109 = DIRECTION ( 'NONE',  ( 1.000000000000000000, 0.000000000000000000, 0.000000000000000000 ) ) ;
#110 = ORIENTED_EDGE ( 'NONE', *, *, #58, .F. ) ;
#111 = FACE_BOUND ( 'NONE', #79, .T. ) ;
#112 = FILL_AREA_STYLE_COLOUR ( '', #78 ) ;
#113 = DIRECTION ( 'NONE',  ( -1.000000000000000000, -0.000000000000000000, -0.000000000000000000 ) ) ;
#114 = AXIS2_PLACEMENT_3D ( 'NONE', #93, #29, #71 ) ;
#115 =( NAMED_UNIT ( * ) SI_UNIT ( $, .STERADIAN. ) SOLID_ANGLE_UNIT ( ) );
#116 = UNCERTAINTY_MEASURE_WITH_UNIT (LENGTH_MEASURE( 1.000000000000000082E-05 ), #76, 'distance_accuracy_value', 'NONE');
#117 = PRESENTATION_STYLE_ASSIGNMENT (( #45 ) ) ;
#118 = PRODUCT_DEFINITION_CONTEXT ( 'detailed design', #97, 'design' ) ;
#119 = ORIENTED_EDGE ( 'NONE', *, *, #28, .F. ) ;
#120 = CYLINDRICAL_SURFACE ( 'NONE', #121, 23.50000000000000355 ) ;
#121 = AXIS2_PLACEMENT_3D ( 'NONE', #96, #113, #95 ) ;
#122 =( GEOMETRIC_REPRESENTATION_CONTEXT ( 3 ) GLOBAL_UNCERTAINTY_ASSIGNED_CONTEXT ( ( #36 ) ) GLOBAL_UNIT_ASSIGNED_CONTEXT ( ( #16, #91, #61 ) ) REPRESENTATION_CONTEXT ( 'NONE', 'WORKASPACE' ) );
#123 = CYLINDRICAL_SURFACE ( 'NONE', #114, 25.00000000000000000 ) ;
#124 = CARTESIAN_POINT ( 'NONE',  ( 0.000000000000000000, 0.000000000000000000, -23.50000000000000355 ) ) ;
#125 = FACE_OUTER_BOUND ( 'NONE', #39, .T. ) ;
#126 = ADVANCED_FACE ( 'NONE', ( #17, #85 ), #123, .T. ) ;
#127 = ADVANCED_FACE ( 'NONE', ( #40, #102 ), #74, .F. ) ;
#128 = PRODUCT_DEFINITION_SHAPE ( 'NONE', 'NONE',  #33 ) ;
#129 = SURFACE_STYLE_FILL_AREA ( #44 ) ;
#130 = ORIENTED_EDGE ( 'NONE', *, *, #10, .T. ) ;
#131 = CARTESIAN_POINT ( 'NONE',  ( 3000.000000000000000, 0.000000000000000000, -23.50000000000000355 ) ) ;
#132 = CARTESIAN_POINT ( 'NONE',  ( 3000.000000000000000, 0.000000000000000000, 0.000000000000000000 ) ) ;
#133 = CIRCLE ( 'NONE', #23, 25.00000000000000000 ) ;
#134 = DIRECTION ( 'NONE',  ( 0.000000000000000000, 0.000000000000000000, -1.000000000000000000 ) ) ;
ENDSEC;
END-ISO-10303-21;
