ISO-10303-21;
HEADER;
FILE_DESCRIPTION (( 'STEP AP214' ),
    '1' );
FILE_NAME ('2046621.stp',
    '2022-02-25T07:33:28',
    ( '' ),
    ( '' ),
    'SwSTEP 2.0',
    'SolidWorks 2020',
    '' );
FILE_SCHEMA (( 'AUTOMOTIVE_DESIGN' ));
ENDSEC;

DATA;
#1 = ADVANCED_FACE ( 'NONE', ( #167, #185 ), #55, .F. ) ;
#2 = EDGE_LOOP ( 'NONE', ( #197 ) ) ;
#3 = FILL_AREA_STYLE_COLOUR ( '', #160 ) ;
#4 = DIRECTION ( 'NONE',  ( -1.000000000000000000, -0.000000000000000000, -0.000000000000000000 ) ) ;
#5 = DIRECTION ( 'NONE',  ( 0.000000000000000000, 0.000000000000000000, 1.000000000000000000 ) ) ;
#6 = FACE_OUTER_BOUND ( 'NONE', #63, .T. ) ;
#7 = CIRCLE ( 'NONE', #132, 11.19999999999999751 ) ;
#8 =( NAMED_UNIT ( * ) PLANE_ANGLE_UNIT ( ) SI_UNIT ( $, .RADIAN. ) );
#9 = EDGE_CURVE ( 'NONE', #136, #136, #80, .T. ) ;
#10 = TOROIDAL_SURFACE ( 'NONE', #105, 11.94999999999999929, 2.449999999999999734 ) ;
#11 = UNCERTAINTY_MEASURE_WITH_UNIT (LENGTH_MEASURE( 1.000000000000000082E-05 ), #57, 'distance_accuracy_value', 'NONE');
#12 = EDGE_LOOP ( 'NONE', ( #69 ) ) ;
#13 = ADVANCED_FACE ( 'NONE', ( #118, #134 ), #10, .T. ) ;
#14 = ORIENTED_EDGE ( 'NONE', *, *, #9, .F. ) ;
#15 = DIRECTION ( 'NONE',  ( 0.000000000000000000, 0.000000000000000000, 1.000000000000000000 ) ) ;
#16 =( NAMED_UNIT ( * ) SI_UNIT ( $, .STERADIAN. ) SOLID_ANGLE_UNIT ( ) );
#17 = MECHANICAL_DESIGN_GEOMETRIC_PRESENTATION_REPRESENTATION (  '', ( #143 ), #147 ) ;
#18 = SURFACE_STYLE_USAGE ( .BOTH. , #51 ) ;
#19 =( NAMED_UNIT ( * ) SI_UNIT ( $, .STERADIAN. ) SOLID_ANGLE_UNIT ( ) );
#20 = AXIS2_PLACEMENT_3D ( 'NONE', #120, #28, #43 ) ;
#21 = CARTESIAN_POINT ( 'NONE',  ( -27.49999999999999645, 0.000000000000000000, 0.000000000000000000 ) ) ;
#22 = ORIENTED_EDGE ( 'NONE', *, *, #213, .F. ) ;
#23 = TOROIDAL_SURFACE ( 'NONE', #84, 11.94999999999999929, 1.500000000000000222 ) ;
#24 = DIRECTION ( 'NONE',  ( 0.000000000000000000, 0.000000000000000000, 1.000000000000000000 ) ) ;
#25 = VERTEX_POINT ( 'NONE', #73 ) ;
#26 = FACE_OUTER_BOUND ( 'NONE', #212, .T. ) ;
#27 = PRODUCT_DEFINITION_SHAPE ( 'NONE', 'NONE',  #192 ) ;
#28 = DIRECTION ( 'NONE',  ( -1.000000000000000000, 0.000000000000000000, -0.000000000000000000 ) ) ;
#29 = FACE_BOUND ( 'NONE', #115, .T. ) ;
#30 = AXIS2_PLACEMENT_3D ( 'NONE', #49, #128, #83 ) ;
#31 = AXIS2_PLACEMENT_3D ( 'NONE', #76, #61, #194 ) ;
#32 = FACE_OUTER_BOUND ( 'NONE', #178, .T. ) ;
#33 = SURFACE_STYLE_FILL_AREA ( #110 ) ;
#34 = EDGE_LOOP ( 'NONE', ( #102 ) ) ;
#35 = CIRCLE ( 'NONE', #214, 11.19999999999999574 ) ;
#36 = CYLINDRICAL_SURFACE ( 'NONE', #77, 10.24999999999999822 ) ;
#37 = APPLICATION_CONTEXT ( 'automotive_design' ) ;
#38 = FILL_AREA_STYLE ('',( #182 ) ) ;
#39 = DIRECTION ( 'NONE',  ( -1.000000000000000000, -0.000000000000000000, -0.000000000000000000 ) ) ;
#40 = CARTESIAN_POINT ( 'NONE',  ( -27.49999999999999645, 11.19999999999999574, 0.000000000000000000 ) ) ;
#41 = CLOSED_SHELL ( 'NONE', ( #159, #71, #126, #47, #13, #1, #206, #196 ) ) ;
#42 = DIRECTION ( 'NONE',  ( 0.000000000000000000, 0.000000000000000000, 1.000000000000000000 ) ) ;
#43 = DIRECTION ( 'NONE',  ( -0.000000000000000000, 0.000000000000000000, 1.000000000000000000 ) ) ;
#44 = VERTEX_POINT ( 'NONE', #171 ) ;
#45 = PRESENTATION_STYLE_ASSIGNMENT (( #141 ) ) ;
#46 = UNCERTAINTY_MEASURE_WITH_UNIT (LENGTH_MEASURE( 1.000000000000000082E-05 ), #82, 'distance_accuracy_value', 'NONE');
#47 = ADVANCED_FACE ( 'NONE', ( #50, #79 ), #36, .F. ) ;
#48 = EDGE_LOOP ( 'NONE', ( #148 ) ) ;
#49 = CARTESIAN_POINT ( 'NONE',  ( 0.000000000000000000, 0.000000000000000000, 0.000000000000000000 ) ) ;
#50 = FACE_OUTER_BOUND ( 'NONE', #52, .T. ) ;
#51 = SURFACE_SIDE_STYLE ('',( #99 ) ) ;
#52 = EDGE_LOOP ( 'NONE', ( #14 ) ) ;
#53 = CIRCLE ( 'NONE', #166, 10.24999999999999822 ) ;
#54 = AXIS2_PLACEMENT_3D ( 'NONE', #40, #186, #90 ) ;
#55 = CYLINDRICAL_SURFACE ( 'NONE', #176, 10.24999999999999822 ) ;
#56 = DIRECTION ( 'NONE',  ( 0.000000000000000000, 0.000000000000000000, 1.000000000000000000 ) ) ;
#57 =( LENGTH_UNIT ( ) NAMED_UNIT ( * ) SI_UNIT ( .MILLI., .METRE. ) );
#58 = CIRCLE ( 'NONE', #179, 10.25000000000000000 ) ;
#59 = CARTESIAN_POINT ( 'NONE',  ( 27.49999999999999645, 0.000000000000000000, 0.000000000000000000 ) ) ;
#60 = CARTESIAN_POINT ( 'NONE',  ( -1.299038105676657340, 0.000000000000000000, 11.19999999999999751 ) ) ;
#61 = DIRECTION ( 'NONE',  ( -1.000000000000000000, -0.000000000000000000, -0.000000000000000000 ) ) ;
#62 = ORIENTED_EDGE ( 'NONE', *, *, #155, .F. ) ;
#63 = EDGE_LOOP ( 'NONE', ( #201 ) ) ;
#64 = PRESENTATION_LAYER_ASSIGNMENT (  '', '', ( #143 ) ) ;
#65 = CARTESIAN_POINT ( 'NONE',  ( -27.49999999999999645, 0.000000000000000000, 0.000000000000000000 ) ) ;
#66 =( NAMED_UNIT ( * ) PLANE_ANGLE_UNIT ( ) SI_UNIT ( $, .RADIAN. ) );
#67 = EDGE_LOOP ( 'NONE', ( #22 ) ) ;
#68 = PRODUCT_CONTEXT ( 'NONE', #37, 'mechanical' ) ;
#69 = ORIENTED_EDGE ( 'NONE', *, *, #205, .F. ) ;
#70 = DIRECTION ( 'NONE',  ( 0.000000000000000000, 0.000000000000000000, 1.000000000000000000 ) ) ;
#71 = ADVANCED_FACE ( 'NONE', ( #6, #137 ), #74, .T. ) ;
#72 = DIRECTION ( 'NONE',  ( -1.000000000000000000, -0.000000000000000000, -0.000000000000000000 ) ) ;
#73 = CARTESIAN_POINT ( 'NONE',  ( -27.49999999999999645, 0.000000000000000000, 10.25000000000000000 ) ) ;
#74 = CYLINDRICAL_SURFACE ( 'NONE', #184, 11.19999999999999751 ) ;
#75 = CARTESIAN_POINT ( 'NONE',  ( -27.49999999999999645, 0.000000000000000000, 0.000000000000000000 ) ) ;
#76 = CARTESIAN_POINT ( 'NONE',  ( 1.299038105676657340, 0.000000000000000000, 0.000000000000000000 ) ) ;
#77 = AXIS2_PLACEMENT_3D ( 'NONE', #65, #200, #129 ) ;
#78 = APPLICATION_PROTOCOL_DEFINITION ( 'draft international standard', 'automotive_design', 1998, #202 ) ;
#79 = FACE_OUTER_BOUND ( 'NONE', #48, .T. ) ;
#80 = CIRCLE ( 'NONE', #93, 10.24999999999999822 ) ;
#81 = PRESENTATION_STYLE_ASSIGNMENT (( #18 ) ) ;
#82 =( LENGTH_UNIT ( ) NAMED_UNIT ( * ) SI_UNIT ( .MILLI., .METRE. ) );
#83 = DIRECTION ( 'NONE',  ( 1.000000000000000000, 0.000000000000000000, 0.000000000000000000 ) ) ;
#84 = AXIS2_PLACEMENT_3D ( 'NONE', #207, #138, #56 ) ;
#85 = DIRECTION ( 'NONE',  ( 0.000000000000000000, 0.000000000000000000, 1.000000000000000000 ) ) ;
#86 = CARTESIAN_POINT ( 'NONE',  ( -1.764227876437735043, 0.000000000000000000, 0.000000000000000000 ) ) ;
#87 = DIRECTION ( 'NONE',  ( 0.000000000000000000, 0.000000000000000000, 1.000000000000000000 ) ) ;
#88 = CARTESIAN_POINT ( 'NONE',  ( 27.49999999999999645, 0.000000000000000000, 11.19999999999999574 ) ) ;
#89 = PRODUCT ( '2046621', '2046621', '', ( #68 ) ) ;
#90 = DIRECTION ( 'NONE',  ( 0.000000000000000000, 0.000000000000000000, -1.000000000000000000 ) ) ;
#91 = VERTEX_POINT ( 'NONE', #88 ) ;
#92 = CARTESIAN_POINT ( 'NONE',  ( -27.49999999999999645, 0.000000000000000000, 0.000000000000000000 ) ) ;
#93 = AXIS2_PLACEMENT_3D ( 'NONE', #86, #168, #85 ) ;
#94 = CYLINDRICAL_SURFACE ( 'NONE', #113, 11.19999999999999751 ) ;
#95 =( NAMED_UNIT ( * ) SI_UNIT ( $, .STERADIAN. ) SOLID_ANGLE_UNIT ( ) );
#96 = EDGE_LOOP ( 'NONE', ( #62 ) ) ;
#97 = PRESENTATION_LAYER_ASSIGNMENT (  '', '', ( #188 ) ) ;
#98 = ORIENTED_EDGE ( 'NONE', *, *, #9, .T. ) ;
#99 = SURFACE_STYLE_FILL_AREA ( #38 ) ;
#100 =( NAMED_UNIT ( * ) PLANE_ANGLE_UNIT ( ) SI_UNIT ( $, .RADIAN. ) );
#101 = SHAPE_DEFINITION_REPRESENTATION ( #27, #114 ) ;
#102 = ORIENTED_EDGE ( 'NONE', *, *, #131, .F. ) ;
#103 = CIRCLE ( 'NONE', #127, 10.25000000000000000 ) ;
#104 = CARTESIAN_POINT ( 'NONE',  ( -27.49999999999999645, 0.000000000000000000, 0.000000000000000000 ) ) ;
#105 = AXIS2_PLACEMENT_3D ( 'NONE', #163, #180, #15 ) ;
#106 = DIRECTION ( 'NONE',  ( -1.000000000000000000, -0.000000000000000000, -0.000000000000000000 ) ) ;
#107 = CARTESIAN_POINT ( 'NONE',  ( 1.764227876437735043, 0.000000000000000000, 10.24999999999999822 ) ) ;
#108 = CARTESIAN_POINT ( 'NONE',  ( 27.49999999999999645, 0.000000000000000000, 0.000000000000000000 ) ) ;
#109 = COLOUR_RGB ( '',0.5294117647058823595, 0.5490196078431373028, 0.5490196078431373028 ) ;
#110 = FILL_AREA_STYLE ('',( #3 ) ) ;
#111 = ORIENTED_EDGE ( 'NONE', *, *, #131, .T. ) ;
#112 = EDGE_LOOP ( 'NONE', ( #150 ) ) ;
#113 = AXIS2_PLACEMENT_3D ( 'NONE', #75, #142, #211 ) ;
#114 = ADVANCED_BREP_SHAPE_REPRESENTATION ( '2046621', ( #183, #30 ), #198 ) ;
#115 = EDGE_LOOP ( 'NONE', ( #164 ) ) ;
#116 = FACE_OUTER_BOUND ( 'NONE', #2, .T. ) ;
#117 = CIRCLE ( 'NONE', #31, 11.19999999999999751 ) ;
#118 = FACE_OUTER_BOUND ( 'NONE', #96, .T. ) ;
#119 = PLANE ( 'NONE',  #54 ) ;
#120 = CARTESIAN_POINT ( 'NONE',  ( 27.49999999999999645, 11.19999999999999574, 0.000000000000000000 ) ) ;
#121 = DIRECTION ( 'NONE',  ( 0.000000000000000000, 0.000000000000000000, 1.000000000000000000 ) ) ;
#122 = CARTESIAN_POINT ( 'NONE',  ( -27.49999999999999645, 0.000000000000000000, 11.19999999999999574 ) ) ;
#123 = FACE_OUTER_BOUND ( 'NONE', #67, .T. ) ;
#124 = EDGE_LOOP ( 'NONE', ( #98 ) ) ;
#125 = EDGE_LOOP ( 'NONE', ( #111 ) ) ;
#126 = ADVANCED_FACE ( 'NONE', ( #29, #116 ), #119, .F. ) ;
#127 = AXIS2_PLACEMENT_3D ( 'NONE', #191, #169, #87 ) ;
#128 = DIRECTION ( 'NONE',  ( 0.000000000000000000, 0.000000000000000000, 1.000000000000000000 ) ) ;
#129 = DIRECTION ( 'NONE',  ( 0.000000000000000000, 0.000000000000000000, 1.000000000000000000 ) ) ;
#130 = ORIENTED_EDGE ( 'NONE', *, *, #165, .F. ) ;
#131 = EDGE_CURVE ( 'NONE', #139, #139, #7, .T. ) ;
#132 = AXIS2_PLACEMENT_3D ( 'NONE', #187, #106, #24 ) ;
#133 = APPLICATION_PROTOCOL_DEFINITION ( 'draft international standard', 'automotive_design', 1998, #37 ) ;
#134 = FACE_OUTER_BOUND ( 'NONE', #124, .T. ) ;
#135 = CARTESIAN_POINT ( 'NONE',  ( 1.764227876437735043, 0.000000000000000000, 0.000000000000000000 ) ) ;
#136 = VERTEX_POINT ( 'NONE', #208 ) ;
#137 = FACE_OUTER_BOUND ( 'NONE', #125, .T. ) ;
#138 = DIRECTION ( 'NONE',  ( -1.000000000000000000, -0.000000000000000000, -0.000000000000000000 ) ) ;
#139 = VERTEX_POINT ( 'NONE', #60 ) ;
#140 = CIRCLE ( 'NONE', #149, 11.19999999999999574 ) ;
#141 = SURFACE_STYLE_USAGE ( .BOTH. , #210 ) ;
#142 = DIRECTION ( 'NONE',  ( -1.000000000000000000, -0.000000000000000000, -0.000000000000000000 ) ) ;
#143 = STYLED_ITEM ( 'NONE', ( #81 ), #114 ) ;
#144 =( LENGTH_UNIT ( ) NAMED_UNIT ( * ) SI_UNIT ( .MILLI., .METRE. ) );
#145 = UNCERTAINTY_MEASURE_WITH_UNIT (LENGTH_MEASURE( 1.000000000000000082E-05 ), #144, 'distance_accuracy_value', 'NONE');
#146 = ORIENTED_EDGE ( 'NONE', *, *, #165, .T. ) ;
#147 =( GEOMETRIC_REPRESENTATION_CONTEXT ( 3 ) GLOBAL_UNCERTAINTY_ASSIGNED_CONTEXT ( ( #46 ) ) GLOBAL_UNIT_ASSIGNED_CONTEXT ( ( #82, #66, #16 ) ) REPRESENTATION_CONTEXT ( 'NONE', 'WORKASPACE' ) );
#148 = ORIENTED_EDGE ( 'NONE', *, *, #170, .T. ) ;
#149 = AXIS2_PLACEMENT_3D ( 'NONE', #108, #4, #70 ) ;
#150 = ORIENTED_EDGE ( 'NONE', *, *, #155, .T. ) ;
#151 =( GEOMETRIC_REPRESENTATION_CONTEXT ( 3 ) GLOBAL_UNCERTAINTY_ASSIGNED_CONTEXT ( ( #145 ) ) GLOBAL_UNIT_ASSIGNED_CONTEXT ( ( #144, #8, #95 ) ) REPRESENTATION_CONTEXT ( 'NONE', 'WORKASPACE' ) );
#152 = EDGE_CURVE ( 'NONE', #193, #193, #35, .T. ) ;
#153 = DIRECTION ( 'NONE',  ( 0.000000000000000000, 0.000000000000000000, 1.000000000000000000 ) ) ;
#154 = FACE_BOUND ( 'NONE', #203, .T. ) ;
#155 = EDGE_CURVE ( 'NONE', #189, #189, #53, .T. ) ;
#156 = DIRECTION ( 'NONE',  ( -1.000000000000000000, -0.000000000000000000, -0.000000000000000000 ) ) ;
#157 = CARTESIAN_POINT ( 'NONE',  ( 27.49999999999999645, 0.000000000000000000, 10.25000000000000000 ) ) ;
#158 = FACE_OUTER_BOUND ( 'NONE', #12, .T. ) ;
#159 = ADVANCED_FACE ( 'NONE', ( #172, #26 ), #23, .F. ) ;
#160 = COLOUR_RGB ( '',0.5294117647058823595, 0.5490196078431373028, 0.5490196078431373028 ) ;
#161 = ORIENTED_EDGE ( 'NONE', *, *, #205, .T. ) ;
#162 = EDGE_LOOP ( 'NONE', ( #130 ) ) ;
#163 = CARTESIAN_POINT ( 'NONE',  ( 0.000000000000000000, 0.000000000000000000, 0.000000000000000000 ) ) ;
#164 = ORIENTED_EDGE ( 'NONE', *, *, #170, .F. ) ;
#165 = EDGE_CURVE ( 'NONE', #173, #173, #58, .T. ) ;
#166 = AXIS2_PLACEMENT_3D ( 'NONE', #135, #209, #42 ) ;
#167 = FACE_OUTER_BOUND ( 'NONE', #162, .T. ) ;
#168 = DIRECTION ( 'NONE',  ( -1.000000000000000000, -0.000000000000000000, -0.000000000000000000 ) ) ;
#169 = DIRECTION ( 'NONE',  ( -1.000000000000000000, -0.000000000000000000, -0.000000000000000000 ) ) ;
#170 = EDGE_CURVE ( 'NONE', #25, #25, #103, .T. ) ;
#171 = CARTESIAN_POINT ( 'NONE',  ( 1.299038105676657340, 0.000000000000000000, 11.19999999999999751 ) ) ;
#172 = FACE_OUTER_BOUND ( 'NONE', #34, .T. ) ;
#173 = VERTEX_POINT ( 'NONE', #157 ) ;
#174 = DIRECTION ( 'NONE',  ( 0.000000000000000000, 0.000000000000000000, 1.000000000000000000 ) ) ;
#175 = PLANE ( 'NONE',  #20 ) ;
#176 = AXIS2_PLACEMENT_3D ( 'NONE', #21, #39, #153 ) ;
#177 = PRODUCT_DEFINITION_CONTEXT ( 'detailed design', #202, 'design' ) ;
#178 = EDGE_LOOP ( 'NONE', ( #181 ) ) ;
#179 = AXIS2_PLACEMENT_3D ( 'NONE', #59, #72, #121 ) ;
#180 = DIRECTION ( 'NONE',  ( -1.000000000000000000, -0.000000000000000000, -0.000000000000000000 ) ) ;
#181 = ORIENTED_EDGE ( 'NONE', *, *, #213, .T. ) ;
#182 = FILL_AREA_STYLE_COLOUR ( '', #109 ) ;
#183 = MANIFOLD_SOLID_BREP ( 'Rotation', #41 ) ;
#184 = AXIS2_PLACEMENT_3D ( 'NONE', #92, #190, #174 ) ;
#185 = FACE_OUTER_BOUND ( 'NONE', #112, .T. ) ;
#186 = DIRECTION ( 'NONE',  ( 1.000000000000000000, 0.000000000000000000, 0.000000000000000000 ) ) ;
#187 = CARTESIAN_POINT ( 'NONE',  ( -1.299038105676657340, 0.000000000000000000, 0.000000000000000000 ) ) ;
#188 = STYLED_ITEM ( 'NONE', ( #45 ), #183 ) ;
#189 = VERTEX_POINT ( 'NONE', #107 ) ;
#190 = DIRECTION ( 'NONE',  ( -1.000000000000000000, -0.000000000000000000, -0.000000000000000000 ) ) ;
#191 = CARTESIAN_POINT ( 'NONE',  ( -27.49999999999999645, 0.000000000000000000, 0.000000000000000000 ) ) ;
#192 = PRODUCT_DEFINITION ( 'UNKNOWN', '', #195, #177 ) ;
#193 = VERTEX_POINT ( 'NONE', #122 ) ;
#194 = DIRECTION ( 'NONE',  ( 0.000000000000000000, 0.000000000000000000, 1.000000000000000000 ) ) ;
#195 = PRODUCT_DEFINITION_FORMATION_WITH_SPECIFIED_SOURCE ( 'ANY', '', #89, .NOT_KNOWN. ) ;
#196 = ADVANCED_FACE ( 'NONE', ( #158, #32 ), #94, .T. ) ;
#197 = ORIENTED_EDGE ( 'NONE', *, *, #152, .T. ) ;
#198 =( GEOMETRIC_REPRESENTATION_CONTEXT ( 3 ) GLOBAL_UNCERTAINTY_ASSIGNED_CONTEXT ( ( #11 ) ) GLOBAL_UNIT_ASSIGNED_CONTEXT ( ( #57, #100, #19 ) ) REPRESENTATION_CONTEXT ( 'NONE', 'WORKASPACE' ) );
#199 = PRODUCT_RELATED_PRODUCT_CATEGORY ( 'part', '', ( #89 ) ) ;
#200 = DIRECTION ( 'NONE',  ( -1.000000000000000000, -0.000000000000000000, -0.000000000000000000 ) ) ;
#201 = ORIENTED_EDGE ( 'NONE', *, *, #152, .F. ) ;
#202 = APPLICATION_CONTEXT ( 'automotive_design' ) ;
#203 = EDGE_LOOP ( 'NONE', ( #146 ) ) ;
#204 = MECHANICAL_DESIGN_GEOMETRIC_PRESENTATION_REPRESENTATION (  '', ( #188 ), #151 ) ;
#205 = EDGE_CURVE ( 'NONE', #44, #44, #117, .T. ) ;
#206 = ADVANCED_FACE ( 'NONE', ( #123, #154 ), #175, .F. ) ;
#207 = CARTESIAN_POINT ( 'NONE',  ( 0.000000000000000000, 0.000000000000000000, 0.000000000000000000 ) ) ;
#208 = CARTESIAN_POINT ( 'NONE',  ( -1.764227876437735043, 0.000000000000000000, 10.24999999999999822 ) ) ;
#209 = DIRECTION ( 'NONE',  ( -1.000000000000000000, -0.000000000000000000, -0.000000000000000000 ) ) ;
#210 = SURFACE_SIDE_STYLE ('',( #33 ) ) ;
#211 = DIRECTION ( 'NONE',  ( 0.000000000000000000, 0.000000000000000000, 1.000000000000000000 ) ) ;
#212 = EDGE_LOOP ( 'NONE', ( #161 ) ) ;
#213 = EDGE_CURVE ( 'NONE', #91, #91, #140, .T. ) ;
#214 = AXIS2_PLACEMENT_3D ( 'NONE', #104, #156, #5 ) ;
ENDSEC;
END-ISO-10303-21;
